A Mi Favor, El Bordo (tablatura)

Autor: Anónimo | 38454 visualizaciones

Intro:

    B                   F#                 E
e||------------------------------------------------------|
B||-4-4-4-4-4-4-4----------------------------------------|
G||-4-4-2-4-2-4-4--6e-4----------4-----------------------|
D||-4-4-4-4-4-4-4-------4-4--446---6-4-------------------|
A||-2-2-2-2-2-2-2----------------------6-4-2-2-0-2-0-2-2-|
E||------------------------------------------------------|

e||-----------------------------------|
B||----------------------------7------|
G||--------6e-4-6-6-6e4-----6e--6e/---|
D||-----4---------------666-----------|
A||-4-6-------------------------------|
E||-----------------------------------|

Y engancha con el principio..


B
Deje a mi lado el ruido

F#            E
Y me puse a preguntar.

B
¿Por qué hoy es negro el cielo?

F#             E
¿Por qué no quiero ser normal?

B
¿Por qué sufre la gente?

F#            E
¿Por qué el dinero vale?

B
¿Por qué se están peleando

F#                      E
si un color no te hace diferente?

F#                    E
Yo me pregunto casi siempre

G#m         F#            C#m
Y no hay respuestas para dar
e||--------------------------------------------
B||------4-------2-----------------------------
G||----4-------3------6-6--6--8-9-8-6-8-8------
D||--6-------4--------x-x--x--x-x-x-x-x-x------
A||-------------------4-4--4--6-7-6-4-6-6------
E||--------------------------------------------


E                    B
Vivimos hartos de locura

     PM.............................
e||-----------------------------------2---------
B||--5-4-2-0-5-4-2-0-5-4-2-0-5-4-2-0--4---------
G||-----------------------------------4---------
D||-----------------------------------4---------
A||-----------------------------------2---------
E||---------------------------------------------

               F#                          E
Intentando explicar cuando no hace falta hablar

e||--2--2--------------------------------------------------
B||--2----2------------------------------------------------
G||--3----------------------------------------------------
D||--4----------------------------------------------------
A||--4----------------------------------------------------
E||--2----------------------------------------------------

F#                     B
Hay que salir y empezar.

B         F#
No me queda nada

C#m    E     F#    B
Tengo todo a mi favor

            F#           E
Cuando hay poco ves mejor.

Intro: B-F#-E

e||------------------------------------------------------|
B||-4-4-4-4-4-4-4----------------------------------------|
G||-4-4-2-4-2-4-4--6e-4----------4-----------------------|
D||-4-4-4-4-4-4-4-------4-4--446---6-4-------------------|
A||-2-2-2-2-2-2-2----------------------6-4-2-2-0-2-0-2-2-|
E||------------------------------------------------------|

e||----------------------------------|
B||----------------------------7-----|
G||--------6e-4-6-6-6e4-----6e--6e/--|
D||-----4---------------666----------|
A||-4-6------------------------------|
E||----------------------------------|





Deje a mi lado el ruido
Y me puse a escuchar

e||-------------------|
B||-------------------|
G||--4~--4/3~--3/1~---|
D||-------------------|
A||-------------------|
E||-------------------|

¿Qué dicen de este mundo?
¿Quién dice la verdad?

    PM.............................................................
e||-----------------------------------------------------------------|
B||-----------------------------------------------------------------|
G||---------4-------4--------4-------4-------4-------4-----1-----1--|
D||-----4-4---4-4-4----4-4-4---4-4-4---4-4-4---4-4-4---2-2---2-2----|
A||-0-1-2-2---2-2-2----2-2-2---2-2-2---1-1-1---1-1-1---2-2---2-2----|
E||-----------------------------------------------------------------|

¿Qué hacemos en la tierra?
¿Por qué no salió el sol?

    PM.............................................................
e||-----------------------------------------------------------------|
B||-----------------------------------------------------------------|
G||---------4-------4--------4-------4-------4-------4-----1-----1--|
D||-----4-4---4-4-4----4-4-4---4-4-4--------------------------------|
A||-0-1-2-2---2-2-2----2-2-2---2-2-2---4-4-4---4-4-4---2-2---2-2----|
E||------------------------------------2-2-2---2-2-2---0-0---0-0----|

¿Y por que fue que me toco ser así como soy?

    PM...............
e||----------------------------------------------------------|
B||----------------------------------------------------------|
G||-4-4-4-4-4-4-4-4-4-4-4-4-4-4-4-4-4---11--11--11--9--9--9--|
D||-4-4-4-4-4-4-4-4-4-4-4-4-4-4-4-4-4---11--11--11--9--9--9--|
A||-2-2-2-2-2-2-2-2-2-2-2-2-2-2-2-2-2---9---9---9---7--7--7--|
E||----------------------------------------------------------|

(Acá arranca tocando los acordes más agudos)

Yo me pregunto casi siempre...

----------

Acordes:

     B   F#  E  G#m  C#m
e||--2---2---0---4----4------|
B||--4---2---0---4----5------|
G||--4---3---1---4----6------|
D||--4---4---2---6----6------|
A||--2---4---2---6----4------|
E||------2---0---4-----------|


El Solo del Saxo, está en las mismas notas, pero más agudas..

Cualquier cosita, mi mail es: elenanobostero@hotmail.com
Calificar esta versión:
Aviso: Este fichero es trabajo propio de su transcriptor y representa su interpretación personal de la canción. El material contenido en esta página es para exclusivo uso privado, por lo que se prohibe su reproducción o retransmisión, así como su uso para fines comerciales.
Más versiones de A Mi Favor, El Bordo
A Mi Favor
acordes
A Mi Favor
tablatura
Descubre más canciones de El Bordo