Solo, Ekhymosis (tablatura) (ver 2)

Autor: sergio1998 | 27388 visualizaciones



Riff Inicio
|-----------------------------------------------------------|
|-----------------------------------------------------------|
|--11-12-11-12-12/17----17h16h14-12----12/11-11---11/16-16--|
|-----------------------------------------------------------|
|-----------------------------------------------------------|
|-----------------------------------------------------------|

Riff 2: 00:38
|------------------------------------------------|
|------------------------------------------------|
|--/16------12--------12/9-7h9-9------9h7-5/7-4--|
|------------------------------------------------|
|------------------------------------------------|
|------------------------------------------------|

Coro 1 Acustica
|--0000-0000-2222-23222-0000-0000-2222-232-2-3--|
|--0000-1111-3333-33333-0000-1111-3333-333------|
|--0000-0000-2222-22222-0000-0000-2222-222------|
|--2222-2222-0000-00000-2222-2222-0000-000------|
|--2222-3333-0000-00000-2222-3333-0000-000------|
|--0000-0000------------0000-0000---------------|

Coro
|---------------------------------------------------------------------------------------------------| |-----------------|
|---------------------------------------------------------------------------------------------------| |-----------------| x8
|------------3333-7777-777-77------5555-7777-777-77------5555-7777-777-77------5555-777777777777777-| |---------777777--|
|-------2222-3333-7777-777-77-2222-5555-7777-777-77-2222-5555-7777-777-77-2222-5555-777777777777777-| |--222222-777777--|
|-------2222-5555-5555-555-55-2222-3333-5555-555-55-2222-3333-5555-555-55-2222-3333-555555555555555-| |--222222-555555--|
|-2/8/0-0000------------------0000------------------0000------------------0000----------------------| |--000000---------|

Solo
|-------------------------------------------------------------------------------------------------------------------------------|
|---------------------------------1215-15b-20-17-15h17-1715-15h13------------------------------------20-19-1515-13?13h12--------|
|-/5-5-5h4-2/4-0----------14b-1214-------------------------------14-14h12--14-12--12------/1716-16-17-------------14----12/1412-|
|------------------------------------------------------------------------13-----15-?141214--------------------------------------|
|-------------------------------------------------------------------------------------------------------------------------------|
|--------------------15/10------------------------------------------------------------------------------------------------------|


Coro
|---------------------------------------------------------------------------------------------------| |-----------------|
|---------------------------------------------------------------------------------------------------| |-----------------| x8
|------------3333-7777-777-77------5555-7777-777-77------5555-7777-777-77------5555-777777777777777-| |---------777777--|
|-------2222-3333-7777-777-77-2222-5555-7777-777-77-2222-5555-7777-777-77-2222-5555-777777777777777-| |--222222-777777--|
|-------2222-5555-5555-555-55-2222-3333-5555-555-55-2222-3333-5555-555-55-2222-3333-555555555555555-| |--222222-555555--|
|-2/8/0-0000------------------0000------------------0000------------------0000----------------------| |--000000---------|





Orden de la cancion

Riff Inicio
Riff 2
Coro 1
Coro
Solo
Coro





Calificar esta versión:
Aviso: Este fichero es trabajo propio de su transcriptor y representa su interpretación personal de la canción. El material contenido en esta página es para exclusivo uso privado, por lo que se prohibe su reproducción o retransmisión, así como su uso para fines comerciales.
Más versiones de Solo, Ekhymosis
Solo
acordes
Solo
tablatura
Solo (ver 2)
tablatura
Descubre más canciones de Ekhymosis