Sin Rencores, Ekhymosis (tablatura)

Autor: Anónimo | 44584 visualizaciones



Artista: Ekhymosis
Cancion: Sin Rencores


Esta cancion se toca medio tono mas abajo quiero decir en bemol toda la guitarra.

INTRO:

ºEfecto- Se hace con una acustica o con un simulador de la 
        pedalera y si quieres le agregas un poco de Chorus.

- Las dos guitarras hacen los mismo al mismo tiempo

para la introducion la bateria usa el charles y un accesorio que es como una pandereta
que rellena toda la introducion y casi todos los versos de la cancion

para iniciar cada frase comiensan con el bajo de Em.
Las dos guitarras hacen lo mismo la mismo tiempo.

   MI menor  - DO Mayor

e------0------0--0-0--
B------0------0--1-1--
G------0------0--0-0--
D------2------2--2-2--
A------2------2--3-3--
E---0--0---0--0--0-0--  Ustedes conjen el ritmon escuchando la cancion

FIGURA 1:

ºEfecto- Se hace con el mismo efecto de la intro, si quieres y tienes un pedal de 
        expresion de puedes asignar el chorus y lo inyectas en las partes altas
        de los punteos.

-Una Guitarra hace los acordes.

   SOL Mayor     - LA mayor     - DO Mayor      - RE mayor
     
-A la ves la segunda guitarra hace el punteo

e---------3----- --------3----- --------3------ -------5-----
B-----------3--- ----------3--- ----------3---- ---------5---
G----4-4------4- ---5-5------5- ---5-5-------5- ---7-7-----7- 
D--------------- -------------- --------------- ------------- 
A--------------- -------------- --------------- -------------
E--------------- -------------- --------------- -------------

Que los acordes coincidan con el punteo, cada acorde con cada una de las figuras.

FIGURA 2:

-Una guitarra hace los acordes como los de la introducion

-La otra hace esto.

Efecto- Puedes usar una distorcion de LEAD que es fuerte pero se entinde
        con un poquito de Delay.

PM: Palm mute (poner la mano derecha en las cuerdas cerca al puente de dode salen 
               las cuerdas).

       MI menor          DO5 Mayor

e---------------------------------
B---------------------------------
G------------------5-5-5-5-5-5-5--
D----2---2-2-2-2---5-5-5-5-5-5-5--
A----2---2-2-2-2---3-3-3-3-3-3-3--
E----0---0-0-0-0------------------
        PM * * * 

FIGURA 3:

ºEfecto- Esto una guitarra usa el acustico y la guitarra que hace los acordes en cejilla usa
         un Wah inyectado con pedal de expresion y un poquito de echo.

-Una guitarra hace los acordes

SOL Mayor - DO Mayor - RE Mayor - RE Mayor

-A la ves la otra hace esto con palm mute y efecto de Wah

El Palm Mute lo pones al gusto en donde mas te paresca 
siempre el inicio de cada acorde es con Palm Mute y al fina es normal
 
e----3----  ---3----  ---5----  ---5----
B----3----  ---4----  ---6----  ---6----
G----4----  ---5----  ---7----  ---7----
D----5----  ---5----  ---7----  ---7----
A----5----  ---3----  ---5----  ---5----
E----3----  ---x----  ---x----  ---x---- 

Con un ritmo de Reggae.

Esas son las figuras y esta es la estrutura de la cancion.

(con la INTRODUCION)
Em    C       Em     C
Una flor......tiene que morirse
Em    C       Em           C
un dolor......mas para fundirse
Em     C      Em     C
un perdon......menos para darte
Em    C       Em     C
un temor......menos que contarte.

(Con la FIGURA 1)
G          Am
Que estoy pensando que
 C        D
ya no me puedo equivocar
G          Am
que no tiene reves
C         D          
esta farza de ansiedad

(con la FIGURA 2)
Em       C       Em     C
Miro al sol......no lo veo muy bien
Em    C       Em           C
le falta......un poco de luz tal vez

(Con la FIGURA 3)
G   C     D
Sentirme mal
             G
no es una razon
    C    D
para vivir
               G
necesito aprender
  C    D
a olvidar
                G
es parte de la vida
     C     D
sentirse asi 
               G
al cabo del sueño.


- Ya con esto tocan toda la cancion esas son todas las figuras de la cancion  solo 
  tienen que escucharla y sacan la estrutura. Lo unico complicado de esta cancion
  es que la cancion es muy rapida y hay que estar cambiando de efectos muy rapido 
  entonces tienes que ser muy agil con la pedalera.

GRACIAS que lo disfruten.





Calificar esta versión:
Aviso: Este fichero es trabajo propio de su transcriptor y representa su interpretación personal de la canción. El material contenido en esta página es para exclusivo uso privado, por lo que se prohibe su reproducción o retransmisión, así como su uso para fines comerciales.
Más versiones de Sin Rencores, Ekhymosis
Sin Rencores
acordes
Sin Rencores
tablatura
Descubre más canciones de Ekhymosis