La Tierra, Ekhymosis (tablatura)

Autor: Anónimo | 34799 visualizaciones



============== LAS PISADAS ======================
+-----------------------------------------------+
| Ekhymosis                                     |
| LA TIERRA                                     |
| ---???---                                     |
| ---???---                                     |
+-------------------------------------------TAB-+
=============DEL ROCK EN ESPA~OL=================

                                                                        
E--------------------------0----------------------0---------------------
B-------5--5--3--3--1--1--0---6--6--5--5--3--3--1---------5--5--3----
G--------7--7--4--4--2--2--1----7--7--7--7--4--4--2----------7--7--4----
D--------------------------2----------------------2---------------------
A---0----------------------2----------------------0-----0---------------
E-----------------------------------------------------------------------
                                                                        

                                             Rythym isAm    E           
E------------0-------------------------7--------------------------------
B---3--1--1--0------6--6--5--5--3--3--5--------------------------------
G---4--2--2--1-------7--7--7--7--4--4--5--------------------------------
D------------2----------------------------------------------------------
A------------2----------------------------------------------------------
E-----------------------------------------------------------------------
                                                                        

    Am7   Bridge isAm    Am7      Solo                                  
E-----------------------------------------------------------------------
B------------------------------------------5--5--7--7--9--9-------------
G------------------------------------------------------------9--10------
D-----------------------------------------------------------------------
A-----------------------------------------------------------------------
E-----------------------------------------------------------------------
                                                                        

                                                                        
E---7h10-----10-----10---------7h10-----10--------10---------7h10-------
B---------9--------------------------9-----------------------------9----
G----------------9------9--10------------------9------9--10-------------
D-----------------------------------------------------------------------
A-----------------------------------------------------------------------
E-----------------------------------------------------------------------
                                                                        

                                                                        
E---10-----10---------7h10-----10-----10-----7------8--7--5-----5-------
B---------------------------9-------------9-----10-----------8-----8----
G-------9------9--10---------------9------------------------------------
D-----------------------------------------------------------------------
A-----------------------------------------------------------------------
E-----------------------------------------------------------------------
                                                                        

                                                                        
E---------8--7--5-----5-------------------5-----------------------------
B---6--5-----------8-----8--6--5--5h6-----------------------------------
G--------------------------------------7-----5h7-----5------------------
D-------------------------------------------------8-----7--8--5--7------
A-----------------------------------------------------------------------
E-----------------------------------------------------------------------
                                                                        

                                                                        
E-------------------7h10-----10-----10---------7h10-----10--------10----
B-------------------------9--------------------------9------------------
G------------9--10---------------9------9--10------------------9--------
D------7----------------------------------------------------------------
A---8-----7-------------------------------------------------------------
E-----------------------------------------------------------------------
                                                                        

                                                                        
E----------7h10-----10-----10---------7h10-----10-----10-----7----------
B----------------9--------------------------9-------------9-----10------
G---9--10---------------9------9--10---------------9--------------------
D-----------------------------------------------------------------------
A-----------------------------------------------------------------------
E-----------------------------------------------------------------------
                                                                        

                                                                        
E----------------------------------------7h10-----10-----10-------------
B---------------5--5--7--7--9--9---------------9------------------------
G---------------------------------9--10---------------9------9--10------
D-----------------------------------------------------------------------
A-----------------------------------------------------------------------
E-----------------------------------------------------------------------
                                                                        

                                                                        
E---7h10-----10--------10---------7h10-----10-----10---------7h10-------
B---------9-----------------------------9--------------------------9----
G-------------------9------9--10---------------9------9--10-------------
D-----------------------------------------------------------------------
A-----------------------------------------------------------------------
E-----------------------------------------------------------------------
                                                                        

                                                                        
E---10-----10-----7------8--7--5-----5-----------8--7--5-----5----------
B--------------9-----10-----------8-----8--6--5-----------8-----8--6----
G-------9---------------------------------------------------------------
D-----------------------------------------------------------------------
A-----------------------------------------------------------------------
E-----------------------------------------------------------------------
                                                                        

                                                                        
E--------------5--------------------------------------------7h10--------
B---5--5h6--------------------------------------------------------9-----
G-----------7-----5h7-----5--------------------------9--10--------------
D----------------------8-----7--8--5--7-----7---------------------------
A----------------------------------------8-----7------------------------
E-----------------------------------------------------------------------
                                                                        

                                                                        
E---10-----10---------7h10-----10--------10---------7h10-----10---------
B---------------------------9-----------------------------9-------------
G-------9------9--10------------------9------9--10---------------9------
D-----------------------------------------------------------------------
A-----------------------------------------------------------------------
E-----------------------------------------------------------------------
                                                                        

                                                                        
E---10---------7h10-----10-----10-----7---------------------------------
B--------------------9-------------9-----10-----------------------------
G-------9--10---------------9-------------------9--9--8--9--10--9--8----
D-----------------------------------------------------------------------
A-----------------------------------------------------------------------
E-----------------------------------------------------------------------
                                                                        

                                                                        
E-----------------------------------------------------------------------
B-----------------------------------------------------------------------
G---9--10--9--8--9--10--9--8--9--10--9--8--9--10--9--8--9--10--9--10----
D-----------------------------------------------------------------------
A-----------------------------------------------------------------------
E-----------------------------------------------------------------------
                                                                        

                                                                        
E-----------------------------------------------------------------------
B-----------------------------------------------------------------------
G---9--9--8--9--10--9--8--9--10--9--8--9--10--9--8--9--10--9--8--9------
D-----------------------------------------------------------------------
A-----------------------------------------------------------------------
E-----------------------------------------------------------------------
                                                                        

                                                                        
E--------------------------7------7-----7-----0-----0-----0-------------
B-----------------------9-----------------------------------------------
G---10--9--8--9--10--9--------10-----9-----5----------------------------
D------------------------------------------------7----------------------
A------------------------------------------------------7----------------
E------------------------------------------------------------8--5-------
                                                                        

    Triplet                                                             
E-----------------------------------------------------------------------
B-----------------------------------------------------------------------
G------10--9--9--8--9--10--9--8--9--10--9--8--9--10--9--8--9--10--9-----
D-----------------------------------------------------------------------
A-----------------------------------------------------------------------
E-----------------------------------------------------------------------
                                                                        

                                                                        
E-----------------------------------------------------------------------
B-----------------------------------------------------------------------
G---8--9--10--9--8--9--10--9--10--9--9--8--9--10--9--8--9--10--9--8-----
D-----------------------------------------------------------------------
A-----------------------------------------------------------------------
E-----------------------------------------------------------------------
                                                                        

                                                                        
E----------------------------------------------------------7------7-----
B-------------------------------------------------------9---------------
G---9--10--9--8--9--10--9--8--9--10--9--8--9--10--9-----------10--------
D-----------------------------------------------------------------------
A-----------------------------------------------------------------------
E-----------------------------------------------------------------------
                                                                        

                                                                        
E------7-----7--10--7-------------------7-------------------------------
B---------9------------9-------------9-----10---------------------------
G---9---------------------10--9--10-------------------------------------
D-----------------------------------------------------------------------
A-----------------------------------------------------------------------
E-----------------------------------------------------------------------
                                                                        

       Repeat first part of solo                                        
E-----------------------------------------------------------------------
B-----------------------------------------------------------------------
G-----------------------------------------------------------------------
D-----------------------------------------------------------------------
A-----------------------------------------------------------------------
E-----------------------------------------------------------------------
                                                                        
=================================================



========================================================================
==                       TABLATURE EXPLANATION                        ==
========================================================================

----------                ----------                ----t---
----5h8--- Hammeron       ----(8)--- Ghost          ----6--- Tap
----------                ---------- Note           --------
----5p8--- Pulloff        ----------                --------

----------                ----------                -----p--
----5/8--- Slide Up       -----x---- Dead           -----7-- Pop
----------                ---------- Note           --s-----
----58--- Slide Down     ----------                --5----- Slap 

----------                ||------|| Repeat         --------
----5~~~-- Vibrato        ||*----*||                ---5^--- Bend
----------                ||*----*||                --------
----------                ||------||                --------

----------                ----------                --------
-4:------- Time           ----------                --------
-4:------- Signature      ----------                --------
----------                ----------                --------

Rhythm:
  w = whole note            W = dotted whole
  h = half note             H = dotted half
  q = quarter note          Q = dotted quarter
  e = eighth note           E = dotted eighth
  s = sixteenth note        S = dotted sixteenth
  t = 32nd note             T = dotted 32nd
  x = 64th note             X = dotted 64th
  ^ = triplet

========================================================================
==            Created with a demo version of BUCKET O' TAB            ==
==              tablature creation software for Windows               ==
==                  For more info email gse@his.com                   ==
========================================================================





Calificar esta versión:
Aviso: Este fichero es trabajo propio de su transcriptor y representa su interpretación personal de la canción. El material contenido en esta página es para exclusivo uso privado, por lo que se prohibe su reproducción o retransmisión, así como su uso para fines comerciales.
Más versiones de La Tierra, Ekhymosis
La Tierra
acordes
La Tierra
tablatura
Descubre más canciones de Ekhymosis