La Decisión, Ekhymosis (tablatura)

Autor: Anónimo | 15334 visualizaciones



EKHYMOSIS  -  LA DECISION  -  Guitarra Lider


CHORDS

  E  B C#m A A5  
-----2--4-----5-
-----4--5--2--5-
--1--4--6--2--4-
--2--2--6--2--6-
--2--2--4-----6-
-----2--4-----5-

Verso 1
       E           B         C#m          B
---------------------------------------------------
----------0-----------4----------5-----------4-----
--------1-----------4----------6-----------4-------    X4
------2-----------4----------6-----------4---------
---------------2-----------4----------2------------
---0-----------------------------------------------
E               B           C#m           B
   nunca me dijeron,    que todo andaba mal,  no se
E                 B               C#m         B 
   y nunca fue mi culpa,   no quererlo averiguar,  por eso
E              B          C#m             B
   ando recogiendo mil pedazos,  de este corazón, que
E              B             C#m        B 
   No le sirve ya, sangre de otro    corazón

           A               C#m               A5                B
-----------0----------------4-----------------------------------2--------
--------2----2-----------5----5---------------5--------------4----4------
------2--------2-------6--------6----------6----6----------4--------4----
----2----------------6-------------------7--------7------4---------------      X2
--0----------------4-------------------7---------------2-----------------
-------------------------------------5-----------------------------------
A             C#m           A5          B
  pero fue la decisión, no tuve    nada nada nada que decir
A                  C#m        A5             B
  Se fueron de mi vida, si    y yo no lo puedo entender


Solo 1
 
      E           B         C#m         B                        E
-----------0-----------2----------4-----------------------------------0------
---------0-----------4----------5----------4-----7--4---4/5---------0--------
-------1-----------4----------6----------4---4--------------------1----------     X1
-----------------------------------------------------------------------------
---------------2-----------4----------2--------------------------------------
---0-----------------------------------------------------------0-------------

Verso  2

       E           B         C#m          B
---------------------------------------------------
----------0-----------4----------5-----------4-----
--------1-----------4----------6-----------4-------     X2
------2-----------4----------6-----------4---------
---------------2-----------4----------2------------
---0-----------------------------------------------
E              B             C#m           B  
  pasan los segundos   que parecen   una eternidad, 
E               B              C#m           B
  pasa esta canción   para que sepas   que ahora estoy aquí, 

           A               C#m               A5                B
-----------0----------------4-----------------------------------2--------
--------2----2-----------5----5---------------5--------------4----4------
------2--------2-------6--------6----------6----6----------4--------4----     X1
----2----------------6-------------------7--------7------4---------------
--0----------------4-------------------7---------------2-----------------
-------------------------------------5-----------------------------------
  A              C#m(E)          A5             B
y pasa mi voz    cantándote,  y pasa el amor  cortándome 

           A               C#m               B          B
-----------0----------------4----------------2-------------------
--------2----2-----------5----5-----------4----4------------4----
------2--------2-------6--------6-------4--------4--------4------
----2----------------6----------------4-----------------4--------     X1
--0----------------4----------------2-----------------2----------
-----------------------------------------------------------------
  A               C#m(E)       B    B             
y  pasan lo años  que me llevaran       lejos de ti
Solo 2:  

---12----12-11----11-9---9--5/7---------------------------------------------------------
------9--------9-------10--------------9-10-12~-12/14-12-10p9---------------------------
----------------------------------9-11-----------------------11-9~/--------8-9-8--------
-------------------------------------------------------------------9-9/11--------11-9~~-
----------------------------------------------------------------------------------------
----------------------------------------------------------------------------------------

-------------------------------------------7/9~-9~------------------------------------
---------------9-10-12--10/12~--12-14-12~----------10-10-14-12b~---10p9---------------
----------9-11---------------------------------------------------------11-(9)---------
--9h11h12-----------------------------------------------------------------------------
--------------------------------------------------------------------------------------
--------------------------------------------------------------------------------------
  
---12----12-11----11-9--------------------------------
------9--------9--------10-10/14-12~~~---10-9---------
----------------------------------------------11-9~~--
------------------------------------------------------
------------------------------------------------------
------------------------------------------------------

Verso 3

       E           B         C#m          B
---------------------------------------------------
----------0-----------4----------5-----------4-----
--------1-----------4----------6-----------4-------     X2
------2-----------4----------6-----------4---------
---------------2-----------4----------2------------
---0-----------------------------------------------
E              B            C#m             B
  solamente quedan   los recuerdos   en la vida, 
E              B        C#m           B
  solamente queda un salida    no la olvides, 

           A               C#m               A                B
-----------0----------------4-----------------0-----------------2--------
--------2----2-----------5----5------------2----2------------4----4------
------2--------2-------6--------6--------2--------2--------4--------4----     X2
----2----------------6-----------------2-----------------4---------------
--0----------------4-----------------0-----------------2-----------------
-------------------------------------------------------------------------
A                  C#m         A          B
  con el tiempo todo llega   a su final,  hoy me toco aprender a  mi 
A              C#m           A              B
  no me vas a derrotar    el cielo se    derrama en mi

Puente
 
          E                 A5              C#m              B
-----------0-----------------5----------------4----------------2--------
--------0----0------------5----5-----------5----5-----------4----4------
------1--------1--------6--------6-------6--------6-------4--------4----     X4
----2-----------------7----------------6----------------4---------------
-------------------------------------4----------------2-----------------
--0---------------5-----------------------------------------------------
     E               A5            C#m
no me importa, cuanto vales, se que ahora
       B               E           A5                                        
no me paras,   y no es para   lastimarte
   C#m         B                 E          A5
Es solo para olvidarte,   para odiarte y  borrarte
      C#m          B             E
de mi mente para siempre,   sin cadenas
     A5              C#m          B               
en mis manos,   sin cadenas en mi alma

            A                E                 B                             E 
------------0-----------------0----------------2------------------------------0--------
---------2----2------------0----1-----------4----4-------------------------0----1------
-------2--------2--------1--------2-------4--------4---------------------1--------2----    X1
-----2-----------------2----------------4------------------------------2---------------
---0----------------------------------2------------------------------------------------
--------------------0-----------------------------------------------0------------------
A                        E             B                     E  
La vida le da al que no quiere mas y a mi,     me dio poco de ti.
           B               C#m                B
-----------2----------------4-----------------0---------
--------4----4-----------5----5------------0----1-------
------4--------4-------6--------6--------1--------2-----      X3
----4----------------6-----------------2----------------
--2----------------4------------------------------------
------------------------------------0-------------------
B       C#m      E
  Me dio poco de ti
B       C#m      E
  Me dio poco de ti
B       C#m      E
  Me dio poco de ti


Solo 3

-----------0--------------2----------------4----------------2------------
--------1----0----------4---4-----------5----5-----------4----4----------
------2--------2------4-------4-------6--------6-------4--------4--------     X2
----2---------------4---------------6----------------4-------------------
------------------2---------------4----------------2---------------------
--0----------------------------------------------------------------------

---12----12-11----11-9----9--5/7------------------12----12-11----11-9------------------
------9--------9-------10-------------9-10-12~-------9--------9-------10-10/14-12~~~---
---------------------------------9h11--------------------------------------------------
---------------------------------------------------------------------------------------
---------------------------------------------------------------------------------------
---------------------------------------------------------------------------------------

---------------------------------------------------------------------------------------------
---9-14--9-12----10p9-9h10----14--9-12---10-9-7h9p7---14--9-12----10p9p7-10p9p7---14--9-12---
---------------------------------------------------------------------------------------------
---------------------------------------------------------------------------------------------
---------------------------------------------------------------------------------------------
---------------------------------------------------------------------------------------------



EKHYMOSIS  -  LA DECISION  -  Guitarra Rítmica


Verso 1
  
E               B           C#m           B
   nunca me dijeron,    que todo andaba mal,  no se
E                 B               C#m         B 
   y nunca fue mi culpa,   no quererlo averiguar,  por eso
E              B          C#m             B
   ando recogiendo mil pedazos,  de este corazón, que
E              B             C#m        B 
   No le sirve ya, sangre de otro    corazón

A             C#m          A5            B
  pero fue la decisión, no tuve    nada nada nada que decir
A                  C#m        A              B
  Se fueron de mi vida, si    y yo no lo puedo entender

Solo 1:   E  B  C#m  B  E

Verso  2

E              B             C#m           B  
  pasan los segundos   que parecen   una eternidad, 
E               B              C#m           B
  pasa esta canción   para que sepas   que ahora estoy aquí, 

  A              E               C#m           B
y pasa mi voz    cantándote,  y pasa el amor  cortándome 
  A               E           B    B             
y  pasan lo años  que me llevaran       lejos de ti

Solo 2:   E  B  C#m  B    X4

Verso 3

E              B            C#m             B
  solamente quedan   los recuerdos   en la vida, 
E              B        C#m           B
  solamente queda un salida    no la olvides, 

A                  E           C#m        B
  con el tiempo todo llega   a su final,  hoy me toco aprender a  mi 
A                E           C#m            B
  no me vas a derrotar    el cielo se    derrama en mi


Puente

     E               A            C#m             
no me importa, cuanto vales, se que ahora
       B               E           A                                        
no me paras,   y no es para   lastimarte
   C#m         B                 E          A
Es solo para olvidarte,   para odiarte y  borrarte
      C#m          B             E
de mi mente para siempre,   sin cadenas
     A               C#m          B               
en mis manos,   sin cadenas en mi alma

A                        E             B
La vida le da al que no quiere mas y a mi,
               E                       
me dio poco de ti.
B       C#m      E
  Me dio poco de ti
B       C#m      E
  Me dio poco de ti
B       C#m      E
  Me dio poco de ti


Solo 3:   E  B  C#m  B    X




Carlos Piñeros
Bogota-Bucaramanga, Colombia

Aerosmith Lives
Guns N Roses Rules
Nirvana Forever





Calificar esta versión:
Aviso: Este fichero es trabajo propio de su transcriptor y representa su interpretación personal de la canción. El material contenido en esta página es para exclusivo uso privado, por lo que se prohibe su reproducción o retransmisión, así como su uso para fines comerciales.
Más versiones de La Decisión, Ekhymosis
La Decisión
acordes
La Decisión (ver 2)
acordes
La Decisión
tablatura
Descubre más canciones de Ekhymosis