De Madrugada, Ekhymosis (tablatura)

Autor: Anónimo | 33968 visualizaciones



Que más gente aca les mando esta canción ya corregida,
por cierto esta es la versión del CD de Ekhymosis(el verde),
por ello es un poco distinta la de Amor bilingue,
ya que es totalmente acustica y quitan un verso.
Como sea va por el mismo tono y lo único que cambia
es el intro y el coro que tienen dos guitarras.
Espero que la disfruten.

Intro
-----

Guitarra 1


 C#   B   F#
-3----2---2---
-6----4---2---
-6----4---3---
-6----4---4---
-3----2---4---
-3----2---2---

Despues de dos circulos entra la guitarra 2 con este riff
haciendo el mismo ritmo

Guitarra 2


-9--9---7-7-7---6-6-7-7-6--9--9---7-7-7---6------------6--
-9--9---7-7-7---7-7-7-7-7--9--9---7-7-7---7-------7~------
-10-10--8-8-8---6-6-6-6-6--10-10--8-8-8---6--6~-8~--------
----------------------------------------------------------
----------------------------------------------------------
----------------------------------------------------------


-9--9---7-7-7---6-6-7-7-6--9--9---7-7-7---6---6-6-6-4-2~--
-9--9---7-7-7---7-7-7-7-7--9--9---7-7-7---7---7-7-7-6-4~--
-10-10--8-8-8---6-6-6-6-6--10-10--8-8-8---6---------------
----------------------------------------------------------
----------------------------------------------------------
----------------------------------------------------------
Verso(C#  B  F#)
-----

No dejemos que se nos queme la ilusion

antes de que caiga el sol antes de que muera yo.

por mi parte cambiare, donde quieras estare

mil caminos andare, porque se .....

que aun podemos continuar.

Una lagrima va deslizandose en mi piel

y no voy a permitir que esto vuelva a suceder

por mi parte cambiare, donde quieras estare

mil caminos andare, porque se ....

Que aun podemos


Coro
----

Guitarra 1


Ebm C#   B     F#     B     F#     C#
ver la ma~ana en la ventana poder escapar
Ebm C#   B     F#     B     F#     C#    F#
de madrugada sin que nada se nos vaya a cruzar.


Guitarra 2 (al mismo tiempo con la guitarra 1)

-11-11-9--9--7-7-6-6-7-6--11-11-11--9------
-11-11-9--9--7-7-7-7-7-7-------------------
-11-11-10-10-8-8-6-6-8-6-------------------
-------------------------------------------
-------------------------------------------
-------------------------------------------


Solo(no incluido)

se repite el coro

Ebm C#   B     F#     B     F#     C#
ver la ma~ana en la ventana poder escapar
Ebm C#   B     F#     B     F#     C#    F#
de madrugada sin que nada se nos vaya a cruzar.





Calificar esta versión:
Aviso: Este fichero es trabajo propio de su transcriptor y representa su interpretación personal de la canción. El material contenido en esta página es para exclusivo uso privado, por lo que se prohibe su reproducción o retransmisión, así como su uso para fines comerciales.
Más versiones de De Madrugada, Ekhymosis
De Madrugada
acordes
De Madrugada
tablatura
Descubre más canciones de Ekhymosis