Masoquismo, Eiza González (tablatura)

Autor: jcc666 | 17661 visualizaciones



Hola a todos , aquí esta Masoquismo de Eiza González (Lola).

Nota - Los acordes que están entre [ ] solo se rasguean una vez .

     - Los (••••) después de una nota en el tab significa que sigue sonando .

Acordes :

       E A D G B e
E    = 0 2 2 1 0 0
B    = X 2 4 4 4 2
C#m  = X 4 6 6 5 4
A    = X 0 2 2 2 0
F#   = 2 4 4 3 2 2
F#m  = 2 4 4 2 2 2


Intro Teclado :

e -----------------7-7•••••----------------------------------7-7-7--------------
B -9------7-9-7••••--------10-9-10•••---9-10-9------7-9-7-0--------5-5-5--5-----
G -9----9------------------------------------9----9-----------------------5h6---
D -----9-----------------------------------------9------------------------------
A ------------------------------------------------------------------------------
E ------------------------------------------------------------------------------


Verso 1 :

E              B
Tú eras todo para mí
C#m           A
Yo no creía más que en ti
E                 B              F#   A
Y te llagaste a convertir en mi religión

E              B
Tú eras todo y nada más
C#m           A
Eras mi voz eras mi hogar
E                B          F#    A
En medio de la soledad una bendición


Pre coro :

              E           B
Pero algo extraño sucedió
            F#m           A
El cuento de hadas se acabo
           C#m         B             F#  A
Dijiste adiós y me rompiste el corazón


Coro :

             E              B
Cuanto te quiero cuanto te odio
           F#m                A
Cuanto te llevo en mis sentidos
            E           B        F#    A
Si no te olvido es por puro masoquismo 

             E              B
Cuanto te quiero cuanto te odio
           F#m                A
Cuanto te llevo en mis sentidos
            E           B        F#    A
Si no te olvido es por puro masoquismo 


Teclado :

             C#m             B            F#       A
e -----12-16-12•••••---12-16-14••••11-12--------------------
B --14--------------14--------------------12-11--9••••\---
G ----------------------------------------------------------
D ----------------------------------------------------------
A ----------------------------------------------------------
E ----------------------------------------------------------


Verso 2 :

E              B
Tú eras todo para mí
C#m                 A
Desde el principio y hasta el fin
E                B           F#    A
No habría como definir todo este amor


Pre coro :
              E           B
Pero algo extraño sucedió
            F#m           A
El cuento de hadas se acabo
           C#m         B             F#  A
Dijiste adiós y me rompiste el corazón


Coro :

             E              B
Cuanto te quiero cuanto te odio
           F#m                A
Cuanto te llevo en mis sentidos
            E           B        F#    A
Si no te olvido es por puro masoquismo  

             E              B
Cuanto te quiero cuanto te odio
           F#m                A
Cuanto te llevo en mis sentidos
            E           B        F#    A
Si no te olvido es por puro masoquismo 


Solo :

    E         B          F#m     A     E         B         F#m A
e --------------19••••••••••••---------------------------------------------------
B ----19b(21)-19------14/17••••••••••••-17-16p15h16-17--19-17---19b-19b-19~~~~---
G --9----------------------------------------------------------------------------
D --9----------------------------------------------------------------------------
A --7----------------------------------------------------------------------------
E -------------------------------------------------------------------------------


Coro final :

             E              B
Cuanto te quiero cuanto te odio
           F#m                A
Cuanto te llevo en mis sentidos
            E           B        F#    A    [E]  [B]  [A]
Si no te olvido es por puro masoquismo .

                                                       FIN

Cualquier cosa a mi email .





Calificar esta versión:
Aviso: Este fichero es trabajo propio de su transcriptor y representa su interpretación personal de la canción. El material contenido en esta página es para exclusivo uso privado, por lo que se prohibe su reproducción o retransmisión, así como su uso para fines comerciales.
Más versiones de Masoquismo, Eiza González
Masoquismo
acordes
Masoquismo
tablatura
Descubre más canciones de Eiza González