Miente, Eduardo Darnauchans (tablatura)

Autor: tombarbeito | 30735 visualizaciones

F                   C/G      Gm/F                         
E---5--5-------5-----6a-8--------6-----5-3-3
B-----------6-----------------5-------------
G---------5-------5--------5--------3-------
D------3-------3--------5--------3---------3
A-------------------------------------------
E-------------------------------------------
                   C
E-------6-----5-3--------------
B----3-------------5-------5---
G--3-------3------------5------
D-------3-------------5-------5
A------------------3-------3---
E------------------------------

  F
E---5--5-------5------5?5-------5----
B-----------6-----------------6------
G---------5-------5---------5------5-
D------3-------3---------3------3----
A------------------------------------
E------------------------------------



1)
F                     C/G
No importa que no me quieras
                  F
Si me quisiste, mujer
                      C/G
 No importa que no me quieras
                   F
Si me quisiste, mujer

2)
Bb               C
Dime si son de placer
Bb     C          F
           Tus ojeras
Bb                F
Dime si son de placer
Bb     C
           Tus ojeras


     Gm             C
E----6-----6----5-3-------------
B--------3----------5--------5--
G------3-----3------------5-----
D----3-----3-----------5-------5-
A-------------------3--------3---
E-------------------------------


No importa que no me quieras
Engáñame por favor
No importa que no me quieras
Engáñame por favor

Dime que son de dolor
Tus ojeras
Dime que son de dolor
Tus ojeras


No importa que no me quieras
Engáñame por favor
No importa que no me quieras
Engáñame por favor

Dime que son de dolor
Tus ojeras
Dime que son de dolor
Tus ojeras

LA#                      DO*
Dime si son de placer
LA#   DO*        FA*
               Tus ojeras

Fuente:lacuerda
Calificar esta versión:
Aviso: Este fichero es trabajo propio de su transcriptor y representa su interpretación personal de la canción. El material contenido en esta página es para exclusivo uso privado, por lo que se prohibe su reproducción o retransmisión, así como su uso para fines comerciales.