El Instrumento, Eduardo Darnauchans (acordes)

Autor: tombarbeito | 22440 visualizaciones

bbdmfgm
1
Gm         Bb
Conocerse, claro está,
F             Gm
que necesita su tiempo
             Bb
Con años que albañilean
F             Dm         Gm
y años de derrumbamiento


Pero cuando todo es potro,
mujer, baile, vino, viento
Y la carne nos sostiene
tanto mas que el hondo hueso

2
Bb                     F
   ¿Qué vas a andar preguntando
Dm               Gm
   si te das por lo derecho?
Bb              F
   Y es tu voz la que te dice
Dm               Gm
   Si la promesa es lo cierto

Bb  F Dm Gm


1
Y de pronto se volaron
la mujer, el vino, el fuego
Que sostenía las carnes,
el temple del instrumento

2
Y en un cantor de boliche
Me conocí en el ejemplo
Ya perdí mi compañera
Desatame de este enredo


Ya perdí mi compañera
Desatame de este enredo
Bb                  Dm
Ya perdí mi compañera
[sin musica]
Desatame de este enredo

Gm

Y termina
Bb F Dm Gm

e|-------7----|----------|---7-8--8p7----8p7---|
B|--8-10---8--|-7-8-10-7-|-9----------9------9-|
G|------------|----------|---------------------|
D|------------|----------|---------------------|
A|------------|----------|---------------------|
E|------------|----------|---------------------|x3


e|-------7----|----------|---7-8--8-7----8-7----------|
B|--8-10---8--|-7-8-10-7-|-9----------9------9----7h9-|
G|------------|----------|---------------------9------|
D|------------|----------|----------------------------|
A|------------|----------|----------------------------|
E|------------|----------|----------------------------|

Comentarios del colaborador: Esta version de El Instrumento es del disco Dylan 1991

Calificar esta versión:
Aviso: Este fichero es trabajo propio de su transcriptor y representa su interpretación personal de la canción. El material contenido en esta página es para exclusivo uso privado, por lo que se prohibe su reproducción o retransmisión, así como su uso para fines comerciales.