Con Toda Mi Vida, Eddie Woolsey (bajo)

Autor: Anónimo | 18065 visualizaciones

INTRO

E-1-1--1-0—-1-1—--1----1-1—-1-0----1-1------------------
A-----1---------1----------1-----------1--7-6-----------
D----------------------------------------------------
G----------------------------------------------------

Dios tu conoces......

E----------5—5---7—7----------------------------------
A-----4-4--------------7—7—6-----------------------
D-----------------------------------------------------
G------------------------------------------------------

Libre y salvo.....

E----------5—5----7—7----------------------------
A-----4-4----------------7-7777777----------------
D-------------------------------------------------------
G------------------------------------------------------

Y yo se ke estas......

E-------------5—-5-5---7--7-7-------------
A---4—-4-4-----------------------7—7-7-6—
D--------------------------------------------------
G-------------------------------------------------

Y estas a mi lado......

E------------5—-5-5—--7-7-7-7----5-5-5-5-5—-7-7
A---4—-4-4--------------------------------------------
D--------------------------------------------------------
G---------------------------------------------------------

CORO:.......esta algo raro azi ke no estaria mal
                   ke escucharan la cancion para escuchar
                   el ritmo
                   ok.

Con toda mi vida......

E-----------------------------------------------
A-------7-7----------------------------------
D------------6-7-8-9------------------------      x 2
G----------------------------------------------





Yo kiero vivir solo para ti.....

E---------------------------------------
A-----4-4-----4-4----4-4----4-4-----
D---------6--------6------6-------6---
G--------------------------------------

Mientas mi corazon palpite.....

E---5-5---------------------------------
A-------4-5-6-7-----------------------
D----------------------------------------
G----------------------------------------

Ke sea por ti....

E---7-7—--------------------------------
A-------6-7-8-9-----7-7-----------7-7---
D-------------------------6-7-8-9--------
G-------------------------------------------

Eso es todo solo por un pekeño detalle ke va en la estrofa
ke es:

Dios tu conoces.....ese es igual....
el detalle va en la segunda parte...

 el bajo hace lo siguiente...

Libre y salvo.....


E-----------------5-5—-5—--7-7--------------
A-----4-4---4---------------------7-7-7-7----
D---------------------7------------------------
G----------6---------------------------------

esto se hace ya hasta la segunda vuelta.......

espero y les sea de bendicion.....aprovenchela......
Dios los bendiga y echenle ganas ok....
Dunamiz Rock::::.............y les doi un buen konsejo......
oigan la kancion para ke escuchen komo va el ritmo el tiempo
y todo ezo.....zale biie....y de nuevo DIOS LOS BENDIGA......
Calificar esta versión:
Aviso: Este fichero es trabajo propio de su transcriptor y representa su interpretación personal de la canción. El material contenido en esta página es para exclusivo uso privado, por lo que se prohibe su reproducción o retransmisión, así como su uso para fines comerciales.
Más versiones de Con Toda Mi Vida, Eddie Woolsey
Con Toda Mi Vida
acordes
Con Toda Mi Vida
bajo
Descubre más canciones de Eddie Woolsey