Lejos De Tí, Duo Pata Amarilla (tablatura)

Autor: Anónimo | 43920 visualizaciones



Introducción del tema Lejos de ti cualquier consulta a mi correo:
[email protected] o por el facebook o por you tube
o por donde sea..jaja

           F#m        D        A              E
E|--2-4-5-4-2--2-4-5-4-2--2-4-5-4--------------5-4-5-7-
B|--------------------------------5-3-2--5-7-7---------
G|-----------------------------------------------------
D|-----------------------------------------------------
A|-----------------------------------------------------
E|-----------------------------------------------------
/

          F#m         D        A             E
E|--2-4-5-4-2--2-4-5-4-2--2-4-5-4-----------------2-----
B|--------------------------------5-3-2-------5-5---5---
G|--------------------------------------4-2-4-----------
D|------------------------------------------------------
A|------------------------------------------------------
E|------------------------------------------------------
/


E|--A
B|----R
G|------T
D|--------U
A|----------R
E|------------0





Calificar esta versión:
Aviso: Este fichero es trabajo propio de su transcriptor y representa su interpretación personal de la canción. El material contenido en esta página es para exclusivo uso privado, por lo que se prohibe su reproducción o retransmisión, así como su uso para fines comerciales.
Más versiones de Lejos De Tí, Duo Pata Amarilla
Lejos De Tí
acordes
Lejos De Tí (ver 2)
acordes
Lejos De Tí
tablatura
Lejos De Tí (ver 2)
tablatura
Descubre más canciones de Duo Pata Amarilla