Hay Corazón, Duo Pata Amarilla (tablatura)

Autor: Anónimo | 40007 visualizaciones



bueno muchachos aqui les va mi version, espero que les guste,
las dos vesiones anteriores son muy similares, esta es un tanto
diferente, chequeen y me avisan cualquier cosa ok,la cancion este
buenasa disfrutenla

Arpegio en Sim
e-------------------|
B----2-----2-2h3-3--|
G-------------------|
D-------4-----------|
A--2----------------|
E-------------------| x4

e-7/10--10-10-9--7-7/10--1010--1010-|10-10-9--7-7-(5-5-5-5)--
B-8/12--12-12-10-8-8/12--1212--1212-|12-12-10-8-8-(7-7-7-7)--
G-----------------------------------|------------------------
D-----------------------------------|------------------------
A-----------------------------------|------------------------
E-----------------------------------|------------------------

e------------------9-9-10/12-12-12p10-10-9-10-9--------------
B--7-7/10-10-10-10------------------------------12-10-10h12--
G------------------------------------------------------------
D------------------------------------------------------------
A------------------------------------------------------------
E------------------------------------------------------------

e-7/10--10-10-9--7-7/10--1010--1010-|10-10-9--7-7-(5-5-5-5)--
B-8/12--12-12-10-8-8/12--1212--1212-|12-12-10-8-8-(7-7-7-7)--
G-----------------------------------|------------------------
D-----------------------------------|------------------------
A-----------------------------------|------------------------
E-----------------------------------|------------------------

e------------------9-9-10/12-12-12p10-10-9-10-9--------------
B--7-7/10-10-10-10------------------------------12-10-10h12--
G------------------------------------------------------------
D------------------------------------------------------------
A------------------------------------------------------------
E------------------------------------------------------------

saxo

e-10/14-14-14-12-10----10/14-14-14-12-10-----
B-------------------12-------------------10--
G--------------------------------------------
D--------------------------------------------
A--------------------------------------------
E--------------------------------------------
zampoña

e--------------17-15-14----14-----
B-----------15----------17----15--
G-----14-14-----------------------
D---------------------------------
A--12-----------------------------
E---------------------------------

SIm                                    RE
DIJISTES QUE SI QUE EL TRATO ESTABA HECHO
LA                SOL            SIm
YO QUE PENSABA QUE TU TENIAS PALABRA
SIm                               RE
PENSAR QUE OTRA VEZ HE SIDO ENGAÑADO
LA                   SOL           SIm
YO QUE PENSABA QUE NUNCA ME IBA PASAR

SOL                          SIm
YO LE HABIA DICHO QUE ME QUERIA
LA                           SIm
YO LE HABIA DICHO QUE HIBA DURAR
SOL                           SIm
YO LE HABIA DICHO A ESTE CORAZON
LA                       SIm
QUE LE DE CREDITO A TU AMOR

RE                     FA#m
HAY CORAZON COMO TE MIENTO
LA
QUE ELLA NUNCA VA VOLVER
SIm
QUE ELLA NUNCA TE AMO
RE                   FA#m
HAY CORAZON COMO TE DIGO
LA              SOL         SIm
QUE ELLA NUNCA, NUNCA VA VOLVER

Solo de saxo

e-9/10-10-10-9-7----------7----7-9-9/10-|-----------------9-9/10-
B----------------8-7-8-10---10----------|-7---7-8-10-8-10--------
G---------------------------------------|---9--------------------
D---------------------------------------|------------------------
A---------------------------------------|------------------------
E---------------------------------------|------------------------

e-----------------------10-10/12-|----------------------12-14----
B--10----10-12-14-12-14----------|-12----12-14-15-14-15----------
G-----12-------------------------|----14-------------------------
D--------------------------------|-------------------------------
A--------------------------------|-------------------------------
E--------------------------------|-------------------------------

e--14-14-15-17-17-15-14-12--14-14-15-17-17-14-12-10--------------
B----------------------------------------------------------------
G----------------------------------------------------------------
D----------------------------------------------------------------
A----------------------------------------------------------------
E----------------------------------------------------------------

e--------------------7-9/10-10-10-9-7-9/10--
B--7-7/10--10-10-10-------------------------
G-------------------------------------------
D-------------------------------------------
A-------------------------------------------
E-------------------------------------------

bueno muchachos eso es todo, ya saben cualquier cosa me escriben ok





Calificar esta versión:
Aviso: Este fichero es trabajo propio de su transcriptor y representa su interpretación personal de la canción. El material contenido en esta página es para exclusivo uso privado, por lo que se prohibe su reproducción o retransmisión, así como su uso para fines comerciales.
Más versiones de Hay Corazón, Duo Pata Amarilla
Hay Corazón
acordes
Hay Corazón
tablatura
Descubre más canciones de Duo Pata Amarilla