Alpaquitay, Duo Pata Amarilla (tablatura)

Autor: Anónimo | 40075 visualizaciones



bueno amigos aqui les mando esta cancion, esta wenasa
y sin errores, ya saben cualquier cosa escribanme,
ya se viene ay corazon y acabas conmigo ok
E-----------------------------------------------------
B----------------------55-----------------------------
G-----------------------------------------------------
D----------4-4/6---4/6----6-4-6-6/9-999/7-77-7/6-66/4-
A----4-6-7--------------------------------------------
E--7--------------------------------------------------

E-------------------------
B-------------------------
G-------------------------
D----------4-4/6-6H7-6/4--
A----4-6-7----------------
E--7----------------------

VIENTOS
E-(4)/7-9-7-9-7-11H12-9-9/5-5/2-2-----0-2/4-4H5-4-2--
B----------------------------------22----------------
G----------------------------------------------------
D----------------------------------------------------
A----------------------------------------------------
E----------------------------------------------------
SAXO
E-7/9-7-5----5/7-5-4----5/7-7-7/9-7-5----------------7-
B---------5----------5----------------5-7-7/9-9/10-9-7-
G------------------------------------------------------
D------------------------------------------------------
A------------------------------------------------------
E------------------------------------------------------



Cuando niños nos prometimos
 MI                    SI
Ante una estrella  mientras caía
             FA#m           DO#m-SI
Que cuando grandes nuestro amor siempre dure
 MI                                     SI
Siempre perdure hasta la muerte
 FA#Mm                    DO#mm SI

Solo tu sabes que aquí en la sierra
 MI                            SOL#m
El primer beso es para siempre
 LA                     SI
Quel juramento de amor tiene la fuerza del sol
 MI                                      SOL#m
También del viento y no se rompe
 LA                       SI

Prométeme que mía serás
 LA                 MI
Alpaquitay alpaquitay alpaquitay
 SI           LA           MI
Mi corazón tuyo será
 LA              MI
Solo tuyo me prometiste y me dijiste...
 SI              LA          DOM# - SI


Y por la tarde cuando el frió es intenso
MI                                 SI
Con tu mantita nos abrigamos
    FA#m         DOM# - SI
Y solo así puedo saber que esta noche
  MI                            SI
No tendré penas no tendré llanto
  FA#m                DOM# - SI

Porque tu sabes, que aquien la sierra
 MI                            SOL#m
El primer beso es para siempre
 LA                     SI
Quel juramento de amor tiene la fuerza del sol
 MI                                      SOL#m
También del viento y no se rompe
 LA                       SI

Prométeme que mía serás
 LA                 MI
Alpaquitay alpaquitay alpaquitay
 SI           LA           MI
Mi corazón tuyo será
 LA              MI
Solo tuyo me prometiste y me dijiste...
 SI              LA          DOM# - SI

E-2/4--222-----0-2-4-2----------------5-7---
B----------22----------4-4-0-0--4-5-7-5-7---
G-------------------------------------------
D-------------------------------------------
A-------------------------------------------
E-------------------------------------------


las promesas cumplidas y los sueños dorados
            LA       SI         MI
están aquí a mí lado alpaquitay alpaquitay
        SI           LA            MI
por que aquí en la sierra  los amores son bueno
                     LA   SI         MI
se hace lo que dios manda alpaquitay alpaquitay
                   SI      LA            MI
prometeme que mia seras .... alpaquitay alpaquitay alpaquitay
 LA           MI           SI           LA              MI
prometeme que mia seras .... alpaquitay alpaquitay alpaquitay +4
 LA            MI           SI           LA            MI





Calificar esta versión:
Aviso: Este fichero es trabajo propio de su transcriptor y representa su interpretación personal de la canción. El material contenido en esta página es para exclusivo uso privado, por lo que se prohibe su reproducción o retransmisión, así como su uso para fines comerciales.
Más versiones de Alpaquitay, Duo Pata Amarilla
Alpaquitay
acordes
Alpaquitay
tablatura
Descubre más canciones de Duo Pata Amarilla