Entre Salitre Y Sudor, Duncan Dhu (bajo)

Autor: Anónimo | 20352 visualizaciones

Duncan Dhu      Entre salitre y sudor


G |--------------------------------------------------------------------------||
D |---------------------------------5-----4----------------------------------||
A |-5~~/2--000-2------55-4-2--000-2---7-5---4-5-2----------------------------||
E |--------------3--3--------------------------------------------------------||
        
Mañana de San Juan,la lluvia que nos quiere mal...
G |----------------------------------------------------------------------||
D |-----------------------------5-----4----------------------------------||
A |-2--000-2------55-4-2--000-2---7-5---4-5-2----------------------------||
E |----------3--3--------------------------------------------------------||

El sol ya aparecio...
G |----------------------------------------------------------------------||
D |-------------------------7--------------------------------------------||
A |-2--000-2------55-4-5-55---4-44-0-------------------------------------||
E |----------3--3--------------------------------------------------------||

Barcas a la mar,capanas en la gran ciudad
G |----------------------------------------------------------------------||
D |-----------------------------5-----4----------------------------------||
A |-2--000-2------55-4-2--000-2---7-5---4-5-2----------------------------||
E |----------3--3--------------------------------------------------------||

El viento a favor,es hora de marchar
G |----------------------------------------------------------------------||
D |-------------------------7--------------------------------------------||
A |-2--000-2------55-4-5-55---4-44-0-------------------------------------||
E |----------3--3--------------------------------------------------------||

Estribillo

Y los viejos cuentan... 
G |---------------------------------------------------------------------------||
D |---------5---------------7----------------5---------------7----------------||
A |-------5-------5----5-55----4-44-0------5--------5---5-55---4-44-0---------||
E |---7-7-----7-7---3------------------7-7------7-7---3-----------------------||
        
Bañenas a babor...listos cuerda y arpon
G |----------------------------------------------------------------------||
D |-----------------------------5-----4----------------------------------||
A |-2--000-2------55-4-2--000-2---7-5---4-5-2----------------------------||
E |----------3--3--------------------------------------------------------||

No hay duda que hoy habra,un perdedor
G |----------------------------------------------------------------------||
D |-------------------------7--------------------------------------------||
A |-2--000-2------55-4-5-55---4-44-0-------------------------------------||
E |----------3--3--------------------------------------------------------||

La caza termino...entre salitre y sudor
G |----------------------------------------------------------------------||
D |-----------------------------5-----4----------------------------------||
A |-2--000-2------55-4-2--000-2---7-5---4-5-2----------------------------||
E |----------3--3--------------------------------------------------------||

El cielo enmudecio,la lluvia nos dejo
G |----------------------------------------------------------------------||
D |-------------------------7--------------------------------------------||
A |-2--000-2------55-4-5-55---4-44-0-------------------------------------||
E |----------3--3--------------------------------------------------------||


Y los viejos cuentan... 
G |---------------------------------------------------------------------------||
D |---------5---------------7----------------5---------------7----------------||
A |-------5-------5----5-55----4-44-0------5--------5---5-55---4-44-0---------||
E |---7-7-----7-7---3------------------7-7------7-7---3-----------------------||

Fuente original: LaCuerda
Colaborador original: Gustavo García [ENFURRUCHAO@terra.es]
Calificar esta versión:
Aviso: Este fichero es trabajo propio de su transcriptor y representa su interpretación personal de la canción. El material contenido en esta página es para exclusivo uso privado, por lo que se prohibe su reproducción o retransmisión, así como su uso para fines comerciales.
Más versiones de Entre Salitre Y Sudor, Duncan Dhu
Entre Salitre Y Sudor
acordes
Entre Salitre Y Sudor
bajo
Descubre más canciones de Duncan Dhu