Cien Gaviotas, Duncan Dhu (bajo)

Autor: Anónimo | 18388 visualizaciones

Duncan Dhu	Cien Gaviotas
	

G |---------------------------------------------------------------------------||
D |---------------------------------------------------------------------------||
A |---------------7--6-5---5--------------------------------------------------|| X 4
E |--0-2-4-5--0-5--------5----------------------------------------------------||

   Antes de entrar a cantar, al final de la cuarta vez que se toca lo de antes

G |---------------------------------------------------------------------------||
D |--------------------------------9-6-9---9-6-9---9-6-9----------------------||
A |---------------7--6-5---5-5-4-7-------7-------7-------7--------------------||
E |--0-2-4-5--0-5--------5----------------------------------------------------||


    Hoy el viento sopla mas de lo normal...

G |---------------------------------------------------------------------------||
D |----------11-9-----7-4-7---7-4-7---7-4-7-----------------------------------||
A |----9-6-9--------5-------5-------5-----------------------------------------||
E |--7------------------------------------------------------------------------||

     Las olas intentando salirse del mar...
G |---------------------------------------------------------------------------||
D |----------11-9-----7-4-7---7-4-7---7-4-7-----------------------------------||
A |----9-6-9--------5-------5-------5-----------------------------------------||
E |--7------------------------------------------------------------------------||

     EL cielo es gris y tu no lo podras cambiar...
G |---------------------------------------------------------------------------||
D |----------11-9-----7-4-7---7-4-7---7-4-7-----------------------------------||
A |----9-6-9--------5-------5-------5-----------------------------------------||
E |--7------------------------------------------------------------------------||

     Mira hacia lo lejos busca otro lugar... y cien gaviotas 
G |---------------------------------------------------------------------------||
D |----------11-9-----7-4-7---7-4-7---7-4-7---7-4-7---------------------------||
A |----9-6-9--------5-------5-------5-------5---------------------------------||
E |--7------------------------------------------------------------------------||
    

	Donde iran...donde iran
G |---------------------------------------------------------------------------||
D |---------------------------------------------------------------------------||
A |---------------7--6-5---5--------------------------------------------------|| X 4
E |--0-2-4-5--0-5--------5----------------------------------------------------||


	Hoy no has visto a nadie donde derrumbar...

G |---------------------------------------------------------------------------||
D |----------11-9-----7-4-7---7-4-7---7-4-7-----------------------------------||
A |----9-6-9--------5-------5-------5-----------------------------------------||
E |--7------------------------------------------------------------------------||
	Los muros que goviernan en esta cuidad...
G |---------------------------------------------------------------------------||
D |----------11-9-----7-4-7---7-4-7---7-4-7-----------------------------------||
A |----9-6-9--------5-------5-------5-----------------------------------------||
E |--7------------------------------------------------------------------------||
	Hoy no has visto a nadie con quien disfrutar
G |---------------------------------------------------------------------------||
D |----------11-9-----7-4-7---7-4-7---7-4-7-----------------------------------||
A |----9-6-9--------5-------5-------5-----------------------------------------||
E |--7------------------------------------------------------------------------||
	Placeres que tan solo tu imginaras... Y tus miradas...
G |---------------------------------------------------------------------------||
D |----------11-9-----7-4-7---7-4-7---7-4-7---7-4-7---------------------------||
A |----9-6-9--------5-------5-------5-------5---------------------------------||
E |--7------------------------------------------------------------------------||
	Donde iran...Donde iran
G |---------------------------------------------------------------------------||
D |---------------------------------------------------------------------------||
A |---------------7--6-5---5--------------------------------------------------|| X 4
E |--0-2-4-5--0-5--------5----------------------------------------------------||

	En la cuarta vez, antes del estribillo
G |---------------------------------------------------------------------------||
D |--------------------------------9-6-9---9-6-9---9-6-9----------------------||
A |---------------7--6-5---5-5-4-7-------7-------7-------7--------------------||
E |--0-2-4-5--0-5--------5----------------------------------------------------||

 (Estribillo)  Hoy podras, beber y lamentar, que ya no volveran, sus alas a volar
G |-------------------------------------------------------------------------||
D |--7---7---7-6---6---6-----4---4------7-4-7---7-4-7---7-4-7---------------||
A |----7---7-----7---7---7-5---4---4--5-------5-------5---------------------||
E |-------------------------------------------------------------------------||


Esta es la estructura fundamental de la cancion. El resto son repeticiones de esta misma estructura.
Si pillas esto, lo unico que tienes que hacer es volver a repetir las partes correspondientes. No hay nada
nuevo en lo que queda de cancion. 

Gustavo García

Fuente original: LaCuerda
Colaborador original: Gustavo García [ENFURRUCHAO@terra.es]
Calificar esta versión:
Aviso: Este fichero es trabajo propio de su transcriptor y representa su interpretación personal de la canción. El material contenido en esta página es para exclusivo uso privado, por lo que se prohibe su reproducción o retransmisión, así como su uso para fines comerciales.
Más versiones de Cien Gaviotas, Duncan Dhu
Cien Gaviotas
acordes
Cien Gaviotas
bajo
Descubre más canciones de Duncan Dhu