Casablanca, Duncan Dhu (bajo)

Autor: Anónimo | 28848 visualizaciones

Intro:

E:--5---------5---------10----------10---------
A:----3-7-3-----3-7-3------8-12-8-------8-12-8-
D:---------------------------------------------
G:---------------------------------------------

E:--3---------3---------5---
A:----2-5-2-----2-5-2-------
D:--------------------------
G:--------------------------

Verso:

E:--5---------5---------10----------10---------
A:----3-7-3-----3-7-3------8-12-8-------8-12-8-
D:---------------------------------------------
G:---------------------------------------------

E:--3---------3---------5---------5-------
A:----2-5-2-----2-5-2-----3-7-3-----3-7-3-
D:----------------------------------------
G:----------------------------------------


Coro:
E:---1-1-1-1---3-3-3-3--5-5-5-5-----------
A:----------------------------------------
D:----------------------------------------
G:----------------------------------------

Esa es toda la cancion tienen que oir la cancion para agarar el tiempo.  
Algunas preguntas correcciones escribanme a fer_noise@hotmail.com

Fuente original: LaCuerda
Colaborador original: Fernando Prieto [fer_noise@hotmail.com]
Calificar esta versión:
Aviso: Este fichero es trabajo propio de su transcriptor y representa su interpretación personal de la canción. El material contenido en esta página es para exclusivo uso privado, por lo que se prohibe su reproducción o retransmisión, así como su uso para fines comerciales.
Más versiones de Casablanca, Duncan Dhu
Casablanca
acordes
Casablanca
bajo
Descubre más canciones de Duncan Dhu