A Tu Lado, Duncan Dhu (tablatura)

Autor: Anónimo | 40502 visualizaciones

Antes de empezar a tocar esta canción se necesita practicar
un poco la movilidad de la mano derecha, o si tocas sin
vitela, practica la movilidad de los dedos, pues solo así
pude tocarla correctamente y espero que tu también. Suerte.


Intro x2


    A                     E
    
E-----5-----5---5-----------4-----4---4----------------------
B-------5-----5---5-----------5-----5---5--------------------
G---6-----6---------6-----4-----4---------4------------------
D------------------------------------------------------------
A------------------------------------------------------------
E------------------------------------------------------------

    F#m                   D

E-----2-----2---2-----------2-----2---2----------------------
B-------2-----2---2-----------3-----3---3--------------------
G---2-----2---------2-----2-----2---------2------------------
D------------------------------------------------------------
A------------------------------------------------------------
E------------------------------------------------------------

Si tienes alguna duda, comentario, opinión o corrección 
envíamela a mi e-mail.


Transcripción por Julio Calderón
Cuenca-Ecuador
julioc@etapa.com.ec
sahumerio@latinmail.com


Si en caso tienes el punteado de Trátame Suavemente de
Soda Stereo por favor envíamelo. Gracias.

Fuente original: LaCuerda
Colaborador original: Julio Calderón [julioc@etapa.com.ec]
Calificar esta versión:
Aviso: Este fichero es trabajo propio de su transcriptor y representa su interpretación personal de la canción. El material contenido en esta página es para exclusivo uso privado, por lo que se prohibe su reproducción o retransmisión, así como su uso para fines comerciales.
Más versiones de A Tu Lado, Duncan Dhu
A Tu Lado
acordes
A Tu Lado
tablatura
Descubre más canciones de Duncan Dhu