Tapion, Dragon Ball Gt (tablatura) (ver 2)

Autor: estelo1995 | 27233 visualizaciones



1)-----3---10-8-6-8---3-5-6---6-6-8-6-5-------------
2)-3-3----------------------------------------------
3)-------------------------------------------------- (X2)
4)--------------------------------------------------
5)--------------------------------------------------
6)--------------------------------------------------

aki se le agrega una parte mas nunca antes agregada o que yo no halla encontrado

1)------3-------3---10-8-6-8-------8---3-5-6-------6-6-8-6
2)--3-3---3---3--------------8---8-----------6---6--------
3)----------3------------------8---------------6----------
4)--------------------------------------------------------
5)--------------------------------------------------------
6)--------------------------------------------------------

1)--5-------5------
2)----5---5--------
3)------5----------
4)-----------------
5)-----------------
6)-----------------


parte final  (un poco mas calmado y dramatico o triste )

1)--------------------------------------------------------
2)------3---10-8-6-8---3-5-6---6-6-8-6-5------------------
3)--3-3---------------------------------------------------
4)--------------------------------------------------------
5)--------------------------------------------------------
6)--------------------------------------------------------

Muchas gracias dejen sus comentarios aki y puntuaciones aki





Comentarios del colaborador: gracias por ver estas tablaturas

Calificar esta versión:
Aviso: Este fichero es trabajo propio de su transcriptor y representa su interpretación personal de la canción. El material contenido en esta página es para exclusivo uso privado, por lo que se prohibe su reproducción o retransmisión, así como su uso para fines comerciales.
Más versiones de Tapion, Dragon Ball Gt
Tapion
tablatura
Tapion (ver 2)
tablatura
Descubre más canciones de Dragon Ball Gt