Dan Dan Kokoro Hikareteku, Dragon Ball Gt (tablatura)

Autor: hexis12 | 46096 visualizaciones



Yo mismo la hice.... 5 
estrellaas..:)


-3-3-----3-5-3-1-0-----------------------------5--3-3--------------
-----5-6-----------3-5-5-1-3-5-6-5-3-1-0-----1--------1-3-5-6-5-3-1 
-----------------------------------------2-2-----------------------
---------------------------------------------------------------------------------------------------------------------------------------------------------------------------------------------------------



---------
-1-0-1---
---------
---------
---------
---------

3-5-5-5-5-5-5-3-1-3-5-3-----3-3-3-3-3-1---------------------------
-----------------------------------------5-6-8-6---6-6-6-5-6-5-6-5
----------------------------------------------------------------------------------------------------------------------------------------------------------------------------------------------------------------------------------------------------------------------------


-----------------------------------------------------------------------3-3-1-3-5---6-6-8-10-10-10-10-8-6-8-10-8-8-8-8-8-6---------------------------------------------------------------------------------------------------------------------------------------------------------------------------------------------------------------------------------------------------





Calificar esta versión:
Aviso: Este fichero es trabajo propio de su transcriptor y representa su interpretación personal de la canción. El material contenido en esta página es para exclusivo uso privado, por lo que se prohibe su reproducción o retransmisión, así como su uso para fines comerciales.
Más versiones de Dan Dan Kokoro Hikareteku, Dragon Ball Gt
Dan Dan Kokoro Hikareteku
tablatura
Dan Dan Kokoro Hikareteku (ver 2)
tablatura
Descubre más canciones de Dragon Ball Gt