Tapion, Dragon Ball (tablatura) (ver 3)

Autor: gba123 | 21406 visualizaciones

do                  re         la                  re
1--------------------------------------------------------------I
2--------------------------------------------------------------I
3--------------------------------------------------------------I
4------3--10--8---6---8---------6--6---6---8---6---5-----------I
5--3-3-------------------6--6----------------------------------I
6--------------------------------------------------------------I



       do                  re         la                  re

1------3-10--8---6---8-------6----6--6---6---8---6---5---------I
2--3-3------------------6--6-----------------------------------I
3--------------------------------------------------------------I
4--------------------------------------------------------------I
5--------------------------------------------------------------I
6--------------------------------------------------------------I



       do                  re         la                  re

1-------3-10--8---6---8------6----6----8-----6------5----------I
2--3-3------------------6--6-----------------------------------I
3--------------------------------------------------------------I
4--------------------------------------------------------------I
5--------------------------------------------------------------I
6--------------------------------------------------------------I

Comentarios del colaborador: y asi sucesivamente.....

Calificar esta versión:
Aviso: Este fichero es trabajo propio de su transcriptor y representa su interpretación personal de la canción. El material contenido en esta página es para exclusivo uso privado, por lo que se prohibe su reproducción o retransmisión, así como su uso para fines comerciales.
Más versiones de Tapion, Dragon Ball
Tapion
tablatura
Tapion (ver 2)
tablatura
Tapion (ver 3)
tablatura
Tapion (ver 4)
tablatura
Descubre más canciones de Dragon Ball