Mi Corazon Encantado, Dragon Ball (tablatura) (ver 2)

Autor: jesus enrique palma montejo | 42948 visualizaciones

e/-3-3-----3-5-3---------------------------------5-3--/
B/-----5-6-------6-5---5-5-----5-6-5------------------/
G/-------------------7-----5-7-------7-5-4-2-2-5-----5/
D/----------------------------------------------------/
A/----------------------------------------------------/
E/----------------------------------------------------/

e/-------------------3-3-----3-5-3--------------------/
B/-3-5-6-5-3---5-6-4-----5-6-------6-5---5-5-----5-6-5/
G/-----------5-------------------------7-----5-7------/
D/----------------------------------------------------/
A/----------------------------------------------------/
E/----------------------------------------------------/

e/-------------5-3----------------------/
B/-------------------3-5-6-5-3---3-1-0-1/
G/-7-5-4-2-2-5-----5-----------5--------/
D/--------------------------------------/
A/--------------------------------------/
E/--------------------------------------/


ESPERO QUE LES GUSTE
Calificar esta versión:
Aviso: Este fichero es trabajo propio de su transcriptor y representa su interpretación personal de la canción. El material contenido en esta página es para exclusivo uso privado, por lo que se prohibe su reproducción o retransmisión, así como su uso para fines comerciales.
Más versiones de Mi Corazon Encantado, Dragon Ball
Mi Corazon Encantado
acordes
Mi Corazon Encantado
tablatura
Mi Corazon Encantado (ver 2)
tablatura
Mi Corazon Encantado (ver 3)
tablatura
Descubre más canciones de Dragon Ball