El Poder Nuestro Es, Dragon Ball (tablatura)

Autor: Sofiapdl | 451 visualizaciones

E) ---------0-0-0--2-3-2-0------0--3-2-0-2-0-------7-7-5-3-3-2--------0------------------------------------------------
B) --0--2-----------------------3------------------3---------------------3-3-----0-3-0---------------------------------
G) ------------------------------------------------------------------------------------------3---------------------           TODO SE REPITE
D) ---------------------------------------------------------------------------------------------------------------
A) ---------------------------------------------------------------------------------------------------------------
E) ---------------------------------------------------------------------------------------------------------------


E) ---7-5-10-8-7-5-7--3-5-7---7-5-10-8-7-5-7-7-7--7-7-7-8-7-7-----15-14-12-10-12-12-12--10-7-7-15-14-12-10-7-7-10-12-12--12-14-15-15-12-15-15-12---
14-14-10-15-14-12-10--8--8--8--10--10--10--7--14--15-----------------------------------------------------------------------------
Calificar esta versión:
Aviso: Este fichero es trabajo propio de su transcriptor y representa su interpretación personal de la canción. El material contenido en esta página es para exclusivo uso privado, por lo que se prohibe su reproducción o retransmisión, así como su uso para fines comerciales.
Más versiones de El Poder Nuestro Es, Dragon Ball
El Poder Nuestro Es
acordes
El Poder Nuestro Es
tablatura
Descubre más canciones de Dragon Ball