Chala Head Chala, Dragon Ball (tablatura) (ver 2)

Autor: Fedeq | 20451 visualizaciones

E|---------------------0-|--------0---------|---------------------|
B|-----------------------|------------------|---------------------|
G|--2-1---4-2-1---4-2----|--4-4-2-------0-2-|-4-5-----5-5-4-2-0-4-|
D|------2-------2--------|----------2-4-----|---------------------|
A|-----------------------|------------------|---------------------|
E|-----------------------|------------------|---------------------|

 
E|-------------------|
B|-------------------|
G|-2-1---4-2-1-------|
D|-----2-------2-----|
A|-------------------|
E|-------------------|
 
 

E|-------0-----0-----|---------------------|-------------------|
B|-------------------|---------------------|-2-----2-----------|
G|-4-4-2---4-2-------|-0-2-4-5-----5-4-2-4-|---1-1---4-2-1---2-|
D|---------------2-4-|---------------------|---------------4---|
A|-------------------|---------5-5---------|-------------------|
E|-------------------|---------------------|-------------------|


E|-----------------|----------------|
B|-----------------|----------------|
G|-1-1---2---2-1---|---2-1---2-1-2-4|
D|-----2---2-----2-|-2-----2--------|
A|-----------------|----------------|
E|-----------------|----------------|




E|---0-----0-|-2-3-2-0-2-3-0---|-3-3-2-2-0---0-|---0-----0-|
B|-3---3-3---|---------------3-|-----------3---|-3---3-3---|
G|-----------|-----------------|---------------|-----------|
D|-----------|-----------------|---------------|-----------|
A|-----------|-----------------|---------------|-----------|
E|-----------|-----------------|---------------|-----------|




E|-2-3-2-0-2-3-2-0---|------1-1-1-|
B|-----------------3-|------------|
G|-------------------|-4-5--------|
D|-------------------|------------|
A|-------------------|------------|
E|-------------------|------------|


E|---0-----0-|-2-3-2-0-2-3-2-0---|-3-3-2-2-0---0-|---0-----0-|
B|-3---3-3---|-----------------3-|-----------3---|-3---3-3---|
G|-----------|-------------------|---------------|-----------|
D|-----------|-------------------|---------------|-----------|
A|-----------|-------------------|---------------|-----------|
E|-----------|-------------------|---------------|-----------|


E|-2-3-2-0-2-3-2-0-|---------0-1-0-1-0-1-0-1-1|
B|-----------------|-3-----3------------------|
G|-----------------|---4-5--------------------|
D|-----------------|--------------------------|
A|-----------------|--------------------------|
E|-----------------|--------------------------|
Calificar esta versión:
Aviso: Este fichero es trabajo propio de su transcriptor y representa su interpretación personal de la canción. El material contenido en esta página es para exclusivo uso privado, por lo que se prohibe su reproducción o retransmisión, así como su uso para fines comerciales.
Más versiones de Chala Head Chala, Dragon Ball
Chala Head Chala
tablatura
Chala Head Chala (ver 2)
tablatura
Descubre más canciones de Dragon Ball