Casa De Dos, Dos Minutos (bajo)

Autor: Anónimo | 32631 visualizaciones

Intro                                    x2        # = Las veces necesarias 
G]-------------------------------------------
D]-------------------------------------------
A]-3-0---3-----------------------------------
E]-----3-------------------------------------


  Verso                                   x #
G]-------------------------------------------
D]-------------------------------------------
A]-3#-0#----3#-------------------------------
E]-------3#----------------------------------


  Estribillo                              x #  
G]-------------------------------------------
D]-------------------------------------------
A]-----3-------------------------------------
E]-1-3---------------------------------------


Continuación
Intro x2
Verso x #
Estribillo x #


Dudas o preguntas.
Juannavarrete@ubbi.com

PD: Comunicarse con Barry.

Fuente original: LaCuerda
Colaborador original: Juan Pablo Navarrete [Barry]
Calificar esta versión:
Aviso: Este fichero es trabajo propio de su transcriptor y representa su interpretación personal de la canción. El material contenido en esta página es para exclusivo uso privado, por lo que se prohibe su reproducción o retransmisión, así como su uso para fines comerciales.
Más versiones de Casa De Dos, Dos Minutos
Casa De Dos
acordes
Casa De Dos
bajo
Descubre más canciones de Dos Minutos