Cancion De Amor, Dos Minutos (tablatura) (ver 2)

Autor: Anónimo | 45416 visualizaciones

_____________ (intro y 1er verso)

Nota: pm 0 Palm Muted      
pm:|.......................| |.......| |..................| 
3||--------------------------------------------------2-2-4-2-2-2-----|| X3 
4||+------------------4-4-4-4-4-4-----2-2-2-2-2-2-2--0-0-2-0-0-0----+|| 
5||+-5-5-5-5-5-5-5-5--2-2-2-2-2-2--2--0-0-0-0-0-0-0---------------2-+|| 
6||--3-3-3-3-3-3-3-3---------------0------------------------------0--|| 
(versos 2 y 3) 
3||---------------------4-4-4-4-4-4--2-2-2-2-2-2-2-2--7-7-7-7-7-7----|| X2 
4||+-5-5-5-5-5-5-5-5-5--2-2-2-2-2-2--0-0-0-0-0-0-0-0--5-5-5-5-5-5---+|| 
5||+-3-3-3-3-3-3-3-3-3----------------------------------------------+|| 
6||------------------------------------------------------------------|| 
(coro) 
3||------------------------------------------------------------------||
4||+-9-9-9-9-9-9-9-9---------------------7-7-7-7-7-7-7-7-7-7--------+|| 
5||+-7-7-7-7-7-7-7-7--10-10-10-10-10-10--5-5-5-5-5-5-5-5-5-5--------+|| 
6||--------------------8--8--8--8--8--8------------------------------|| 
(final) 
3||---------------4-4-4-4-x-x--2-2-2-2-x-x--7-7-7-7-x-x--------------|| 
4||+-5-5-5-5-x-x--2-2-2-2-x-x--0-0-0-0-x-x--5-5-5-5-x-x-------------+|| 
5||+-3-3-3-3-x-x----------------------------------------------------+|| 
6||------------------------------------------------------------------|| 

3||-----------------4-4-4-4-4--2-2-2-2-2--7-7-7-7-7---------------4--|| 
4||+-5--(5)-5-5-----2-2-2-2-2--0-0-0-0-0--5-5-5-5-5--5-5-5-5-5-5--2--|| 
5||+-3--(3)-3-3--2-----------------------------------3-3-3-3-3-5-----|| 
6||--------------0---------------------------------------------------|| 

3||--4-4-4-4-4-4--2-2-2-2-2-2--7-7-7-7-7-7---------------------------|| 
4||--2-2-2-2-2-2--0-0-0-0-0-0--5-5-5-5-5-5--5------(5)---------------|| 
5||-----------------------------------------3------(3)---------------|| 
6||------------------------------------------------------------------|| 

INTRO: SOL/SI-/LA/RE/MI/RE

       RE/SI/LA/SOL (BIS)



SOL         SI-
Yo estoy enamorado de vos,
LA          RE    MI RE
desde hace mucho tiempo.
SOL         SI-
Me gusta tu cuerpo esbelto
     LA          RE
pero m s me gusta lo de adentro.
SOL             SI-
Muchas veces me d­ vuelta por vos
LA                     RE  MI  RE
y muchas dadas vueltas m s yo tendré.
SOL           SI-
Siempre te he sido fiel
LA                RE
pero vos conmigo no lo sos.

MI         DO
CERVEZA, YO TE QUIERO
RE
CERVEZA, YO TE ADORO
MI       DO
CERVEZA, YO TE QUIERO
RE       DO
CERVEZA, YO TE ADORO.

Fuente original: LaCuerda
Colaborador original: Peter Punk [edguz@ceibo.entelnet.bo]
Calificar esta versión:
Aviso: Este fichero es trabajo propio de su transcriptor y representa su interpretación personal de la canción. El material contenido en esta página es para exclusivo uso privado, por lo que se prohibe su reproducción o retransmisión, así como su uso para fines comerciales.
Más versiones de Cancion De Amor, Dos Minutos
Canción De Amor
acordes
Cancion De Amor
tablatura
Cancion De Amor (ver 2)
tablatura
Cancion De Amor
bajo
Cancion De Amor (ver 2)
bajo
Descubre más canciones de Dos Minutos