Borracho Y Agresivo, Dos Minutos (bajo)

Autor: Anónimo | 33398 visualizaciones

Intro                        
G|-------------------------|x2
D|-------------------------|
A|---------7-7-7-7-----9-7-|
E|-5-5-5-5---------5-5-----|
                               
G|------------------------|x2
D|------------------------|
A|-9-9-5-5----------------|
E|----------5-5-5-5-5-5-5-|

Verso
G|-----------------------------------------|
D|-----------------------------------------|
A|------7777------7777------7777------7777-|
E|-5555------5555------5555------5555------|

Verso 2                     
G]----------------------------|x4
D]----------------------------|
A]-9-9-9-5-5-5----------------|
E]--------------5-5-5-5-5-5-5-|

Verso /Verso 2 /Verso /Verso 2/
Intro /Verse /Verso 2 /Verso/
Verso 2 /Intro.

Escuchá la canción para saber el ritmo

Fuente original: LaCuerda
Colaborador original: Sebastián Vidondo [rojoamargodelsiglo@yahoo.com.ar]
Calificar esta versión:
Aviso: Este fichero es trabajo propio de su transcriptor y representa su interpretación personal de la canción. El material contenido en esta página es para exclusivo uso privado, por lo que se prohibe su reproducción o retransmisión, así como su uso para fines comerciales.
Más versiones de Borracho Y Agresivo, Dos Minutos
Borracho Y Agresivo
acordes
Borracho Y Agresivo
bajo
Descubre más canciones de Dos Minutos