Barricada Policial, Dos Minutos (tablatura)

Autor: Anónimo | 37037 visualizaciones

INTRO:
E-----------------------------------------
B-----------------------------------------
G-----------------------------------------
D--------5----7---10----------------------
A---7- --3----5----8----------------------
E---5-------------------------------------
     [______________]
           Palm  muted

   VERSO:
E-----------------------------------------
B-----------------------------------------
G-----------------------------------------
D--------5----7---10----------------------
A---7- --3----5----8----------------------
E---5-------------------------------------


  ORDEN:   Intro 2x
           Verso 12x
           Intro 2x
           Verso 2x

les recomiendo escuchar la cancion para conocer el ritmo , 
no es dificil pero si rapida

si no saben lo que es PALM MUTED pueden consultarlo en la 
leccion 7 b de el curso para guitarra que aparece ne la 
guia del guitarrista de este mismo sitio

cualquier duda, consulta, peticion o lo que sea a mi 
correo pipeleyton@hotmail.com

Fuente original: LaCuerda
Colaborador original: Felipe Leyton [pipeleyton@hotmail.com]
Calificar esta versión:
Aviso: Este fichero es trabajo propio de su transcriptor y representa su interpretación personal de la canción. El material contenido en esta página es para exclusivo uso privado, por lo que se prohibe su reproducción o retransmisión, así como su uso para fines comerciales.
Más versiones de Barricada Policial, Dos Minutos
Barricada Policial
acordes
Barricada Policial (ver 2)
acordes
Barricada Policial
tablatura
Barricada Policial (ver 2)
tablatura
Barricada Policial
bajo
Barricada Policial (ver 2)
bajo
Descubre más canciones de Dos Minutos