Aeropuerto, Dos Minutos (tablatura)

Autor: Anónimo | 34650 visualizaciones

intro: con acordes (A-B-E)


e:--------------------------------
b:---12---12---12-----------------
g:-13--13--13-----13---11--9v-----
d:--------------------------------
a:--------------------------------
E:--------------------------------

e:--------------------------------
b:------------12---12---12--------
g:--13----13 ---13----13---11--9v-
d:--------------------------------
a:--------------------------------
E:--------------------------------

e:-----------------------------
b:---12---12---12--------------
g:-13--13--13------13---11--9v-
d:-----------------------------
a:-----------------------------
e:-----------------------------

e:-----------------------------
b:-----------------------------
g:-9---11b--11b--11b---9v------
d:-----------------------------
a:-----------------------------
E:-----------------------------

Solo:

e:-------------------------------
b:---12---12---12----------------
g:-13--13--13-----13---11--9v----
d:-------------------------------
a:-------------------------------
E:-------------------------------

e:-------------------------------
b:-----------12---12---12--------
g:-13----13 ---13----13---11--9v-
d:-------------------------------
a:-------------------------------
E:-------------------------------

e:-----------------------------------
b:---12---12---12--------------------
g:-13--13--13------13---11--9v----9--
d:-----------------------------------
a:-----------------------------------
e:-----------------------------------

b:-----------------------------------
g:---11b--11b--11b---9v------9-----9-
d:------------------------------11---
a:-----------------------------------
E:-----------------------------------

e:------------12p14-16b16b--16--14--12-
b:--12p14------------------------------------
g:-------------------------------------------
d:-------------------------------------------
a:-------------------------------------------
E:-------------------------------------------

e:----12----12--16-16b-16b-16b--14--14--12h--
b:14----14-----------------------------------
g:-------------------------------------------
d:-------------------------------------------
a:-------------------------------------------
E:-------------------------------------------
Calificar esta versión:
Aviso: Este fichero es trabajo propio de su transcriptor y representa su interpretación personal de la canción. El material contenido en esta página es para exclusivo uso privado, por lo que se prohibe su reproducción o retransmisión, así como su uso para fines comerciales.
Más versiones de Aeropuerto, Dos Minutos
Aeropuerto
acordes
Aeropuerto (ver 2)
acordes
Aeropuerto
tablatura
Aeropuerto
bajo
Descubre más canciones de Dos Minutos