A Veces, Dos Minutos (tablatura)

Autor: Anónimo | 26187 visualizaciones

Intro                              
E----------------------
B----------------------
G----------------------
D-9-----------9--------
A-7--7--9--6--7--------
E----5--7--4-----------

Verso                     * = varias veces    
E----------------------
B----------------------
G----------------------
D-9*-----------9*------
A-7---7*-9*-6*-7-------
E-----5--7--4----------

Puente
G-----------------------
D-----------------------
A-4*-7*-9*-4*-7*-9*-----
E-2--5--7--2--5--7------


eso es todo chao. porfa saquen el bajo de los chuquis

  les recomiendo escuchar la cancion para saber el ritmo y el momento
 en que hay que cambiar de posicion.

Fuente original: LaCuerda
Colaborador original: Felipe Leyton [pipeleyton@hotmail.com]
Calificar esta versión:
Aviso: Este fichero es trabajo propio de su transcriptor y representa su interpretación personal de la canción. El material contenido en esta página es para exclusivo uso privado, por lo que se prohibe su reproducción o retransmisión, así como su uso para fines comerciales.
Más versiones de A Veces, Dos Minutos
A Veces
acordes
A Veces
tablatura
A Veces
bajo
Descubre más canciones de Dos Minutos