1987, Dos Minutos (tablatura)

Autor: Anónimo | 25596 visualizaciones

INTRO  : 
 E----------------------------------
 B----------------------------------
 G----------------------------------
 D------9--7--4---------------------
 A---7--7--5--2---------------------
 E---5------------------------------

    VERSO :
 E----------------------------------
 B----------------------------------
 G----------------------------------
 D------9--7--4---------------------
 A---7--7--5--2---------------------
 E---5------------------------------
   
 PUENTE :
 E----------------------------------
 B----------------------------------
 G----------------------------------
 D--6--9--5--9----------------------
 A--4--7--3--7----------------------
 E ---------------------------------

eso es todo chao. por fa saquen la otra guitarra de los ladrones

  les recomiendo escuchar la cancion para saber el ritmo y el momento
 en que hay que cambiar de posicion.

Fuente original: LaCuerda
Colaborador original: Felipe Leyton [pipeleyton@hotmail.com]
Calificar esta versión:
Aviso: Este fichero es trabajo propio de su transcriptor y representa su interpretación personal de la canción. El material contenido en esta página es para exclusivo uso privado, por lo que se prohibe su reproducción o retransmisión, así como su uso para fines comerciales.
Más versiones de 1987, Dos Minutos
1987
acordes
1987
tablatura
1987
bajo
Descubre más canciones de Dos Minutos