No Digas Lo Siento, Don Tetto (tablatura) (ver 2)

Autor: Nigel Brandon | 27395 visualizaciones



Don Tetto ? No digas lo siento

Intro: x2

   F#5                   C#5     D#5           
e|-------------------------------------------------
B|-7-7-7-6-7--11--7-7-7-7-7/14-14-14-14\7-7-7-7-4--
G|-------------------------------------------------
D|-4-4-4-3-4--8---4-4-4-4?4/11-11-11-11\4-4-4-4-1--
A|-------------------------------------------------
E|-------------------------------------------------

          F#5  C#5                        
e|---------------------
B|---7-7-7-7-6-6-6/7~--
G|---------------------
D|---4-4-4-4-3-3-3/4~--
A|---------------------
E|---------------------
 
  
Verso:

  No me digas que ahora quieres regresar
e|--------------------------------------
B|--------6--------6--------6--------6--
G|-----4--------4--------4--------4-----
D|--4--------4--------4--------4--------
A|--------------------------------------
  y juras que te arrepientes que puedes cambiar
e|----------------------------------------
B|--------6--------6--------6---------6---
G|-----4--------4--------4---------4------
D|--6--------6--------6---------6---------
A|----------------------------------------

   yo te busque?
e|--------------------------
B|-----6-----6-----6-----6--
G|---4-----4-----4-----4----
D|-4-----4-----4-----4------
A|--------------------------

    y sonriendo dijiste no voy a volver
e|---------------------------------------
B|--------6--------6--------6---------6--
G|-----4--------4--------4---------4-----
D|--6--------6--------6---------6--------
A|---------------------------------------
 
 no me digas que todo va a ser como ayer
e|--------------------------------------
B|-----7--7-7-6--7~---------------------
G|--6--6--6-6-6--6~---------------------
D|--4--4--4-4-4--4~---------------------
A|--------------------------------------
  cuando prometes no cumples te conozco bien
e|--------------------------------------
B|-----7--7-7-6--7~---------------------
G|--6--6--6-6-6--6~---------------------
D|--4--4--4-4-4--4~---------------------
A|--------------------------------------

 no te sorpresas si no entiendes las situación
e|--------------------------------------
B|-----7--7-7-6--7~---------------------
G|--6--6--6-6-6--6~---------------------
D|--4--4--4-4-4--4~---------------------
A|--------------------------------------

  es mejor que te acostumbres se pondrá peor
e|------------------------------------
B|-----7--7-7-6--7~-------------------
G|--6--6--6-6-6--6~-------------------
D|--4--4--4-4-4--4~-------------------
A|------------------------------------

 Pre-coro: El arpegio que sigue es con palm mute:

   B5               C#5            A#5   
    Yo te daré        la solución    (es  hora  de  decir  dios)
e|-----------------|----------------|--------------------------
B|-------7-------7-|-------6------7-|----------6-----------7---
G|-6---6---6---6---|-6---6---6---6--|-6-----6-----6-----6------
D|---6-------6-----|---4-------4----|----4-----------4---------
A|-----------------|----------------|--------------------------

    B5            C#5              
    para que     nadie salga herido                 
e|-------------|---x------------
B|-------7-----|---x------------
G|-6---6-----6-|---6------------
D|---4-----4---|---6------------
A|-------------|---4------------

Coro:
  F#5
  No  digas  lo  siento  cuando  los  dos  sabemos          
e|----------------------9-|----------11----------13-
B|----------11------------|-------------------------
G|-11-10-11----11-10-11---|-11-10-11----11-10-11----
D|------------------------|-------------------------
A|------------------------|-------------------------
  D#5
  solo  estas  mintiendo  engañando  al  corazón
e|----------------------9-|---------14---13----11---
B|----------11------------|-------------------------
G|-11-10-11----11-10-11---|-11-10-11---11---11------
D|------------------------|-------------------------
A|------------------------|-------------------------            
  F#5
    nos   dolerá   por   un   momento 
e|----------------------9-|----------11----------13-
B|----------11------------|-------------------------
G|-11-10-11----11-10-11---|-11-10-11----11-10-11----
D|------------------------|-------------------------
A|------------------------|-------------------------
  D#5             
  no  digas  lo  siento  así  estaremos  mejor...
e|----------------------9-|---------14---13----11---
B|----------11------------|-------------------------
G|-11-10-11----11-10-11---|-11-10-11---11---11------
D|------------------------|-------------------------
A|------------------------|-------------------------            

Repite intro

Verso:
   No pretendas que todo vuelva a ser igual
e|--------------------------------------
B|-----7--7-7-6--7~-------------7-------
G|--6--6--6-6-6--6~-----------------6---
D|--4--4--4-4-4--4~---------4-----------
A|--------------------------------------

   no soy el mismo de antes lo vas a notar
e|--------------------------------------
B|-----7--7-7-6--7~---------------------
G|--6--6--6-6-6--6~---------------------
D|--4--4--4-4-4--4~---------------------
A|--------------------------------------

   no te ilusiones pensando en lo que pudo ser
e|----------------------------4----------
B|-----7--7-7-6--7~--------------7-------
G|--6--6--6-6-6--6~--------6-------------
D|--4--4--4-4-4--4~-----4----------------
A|---------------------------------------

   el tiempo lo cura todo vamos a salir
e|--------------------------------------
B|-----7--7-7-6--7~---------------------
G|--6--6--6-6-6--6~---------------------
D|--4--4--4-4-4--4~---------------------
A|--------------------------------------

Pre-coro:
   B5               C#5            A#5   
    Yo te daré        la solución    (es  hora  de  decir  dios)
e|-----------------|----------------|--------------------------
B|-------7-------7-|-------6------7-|----------6-----------7---
G|-6---6---6---6---|-6---6---6---6--|-6-----6-----6-----6------
D|---6-------6-----|---4-------4----|----4-----------4---------
A|-----------------|----------------|--------------------------

    B5            C#5              
    para que     nadie salga herido                 
e|-------------|---x------------
B|-------7-----|---x------------
G|-6---6-----6-|---6------------
D|---4-----4---|---6------------
A|-------------|---4------------

Coro:
  F#5
  No  digas  lo  siento  cuando  los  dos sabemos  
e|----------------------9-|----------11----------13-
B|----------11------------|-------------------------
G|-11-10-11----11-10-11---|-11-10-11----11-10-11----
D|------------------------|-------------------------
A|------------------------|-------------------------
  D#5
  solo  estas  mintiendo  engañando  al  corazón
e|----------------------9-|---------14---13----11---
B|----------11------------|-------------------------
G|-11-10-11----11-10-11---|-11-10-11---11---11------
D|------------------------|-------------------------
A|------------------------|-------------------------            
  F#5
    nos   dolerá   por   un   momento 
e|----------------------9-|----------11----------13-
B|----------11------------|-------------------------
G|-11-10-11----11-10-11---|-11-10-11----11-10-11----
D|------------------------|-------------------------
A|------------------------|-------------------------
  D#5             
  no  digas  lo  siento  así  estaremos  mejor...
e|----------------------9-|---------14---13----11---
B|----------11------------|-------------------------
G|-11-10-11----11-10-11---|-11-10-11---11---11------
D|------------------------|-------------------------
A|------------------------|-------------------------   

Solo:
   F#5                                  D#5            
e|---------------------------------------x--x-x--x-x----------
B|---------------------------------------7--x-7--x-7--6-7-6-9-
G|--------------------------------6---6--6--x-6--x-6--6-6-6-6-
D|-/8-6-4-6-4h6p4-4-------4-6-6/8---8----4--x-4--x-4----------
A|------------------4h5h6----------------x--x-x--x-x----------
E|----------------------------------------?-------------------
          F#5                                   D#5 
e|-----------------------------------------------9-----9-----9- 
B|-x-7-x-x-7-xxx-9--xxx-11-xxx-14------------------6-7---6-7---
G|-x-6-x-x-6-xxx-10-xxx-11-xxx-13-------11---------------------
D|-x---x-x---xxx----xxx----xxx----11h13----13-11~--------------
A|-------------------------------------------------------------
E|-------------------------------------------------------------
          C#5                             B5
e|--------------14-13------------------------------------------
B|-6-7/14-11-14------11----------11-14-11-14/16-14-------------
G|---------------------------11-------------------11~----------
D|---------------------11h13--------------------------6h8-6-4~-
A|-------------------------------------------------------------
E|-------------------------------------------------------------

  D#5               C#5
 Y así creamos que podemos arreglarlo                 
e|---------------|--------------------
B|-----3---4---3-|----3---4---6---4-3-
G|---4---4---4---|--4---4---4---4-----
D|-6-------------|-4------------------
A|---------------|--------------------

  B5                 C#5                             
  nos damos cuenta que  las palabras fueron en vano?
e|-----------------|---------------------
B|-----3----4----3-|------3----4--7-6-4--
G|---4----4----4---|----4----4----6-6-3--
D|-2---------------|-4-------------------
A|-----------------|---------------------

Coro:
   No  digas  lo  siento  cuando  los  dos sabemos solo  
   estas  mintiendo  engañando  al  corazón
 
  F#5
  nos   dolerá   por   un   momento 
e|----------------------9-|----------11----------13-
B|----------11------------|-------------------------
G|-11-10-11----11-10-11---|-11-10-11----11-10-11----
D|------------------------|-------------------------
A|------------------------|-------------------------
  D#5             
  no  digas  lo  siento  así  estaremos  mejor...
e|----------------------9-|---------14---13----11---
B|----------11------------|-------------------------
G|-11-10-11----11-10-11---|-11-10-11---11---11------
D|------------------------|-------------------------
A|------------------------|-------------------------             
  F#5
  No digas lo siento
e|----------------------9-|----------11----------13-
B|----------11------------|-------------------------
G|-11-10-11----11-10-11---|-11-10-11----11-10-11----
D|------------------------|-------------------------
A|------------------------|-------------------------
  D#5
  No digas lo siento
e|----------------------9-|---------14---13----11---
B|----------11------------|-------------------------
G|-11-10-11----11-10-11---|-11-10-11---11---11------
D|------------------------|-------------------------
A|------------------------|-------------------------              
 F#5
 así estaremos mejor
e|----------------------9-|----------11----------13-
B|----------11------------|-------------------------
G|-11-10-11----11-10-11---|-11-10-11----11-10-11----
D|------------------------|-------------------------
A|------------------------|-------------------------
  D#5
   No digas lo siento      asi estaremos mejor
e|----------------------9-|---------14---13----11---
B|----------11------------|-------------------------
G|-11-10-11----11-10-11---|-11-10-11---11---11------
D|------------------------|-------------------------
A|------------------------|-------------------------            
              
              Final repite intro





Calificar esta versión:
Aviso: Este fichero es trabajo propio de su transcriptor y representa su interpretación personal de la canción. El material contenido en esta página es para exclusivo uso privado, por lo que se prohibe su reproducción o retransmisión, así como su uso para fines comerciales.
Más versiones de No Digas Lo Siento, Don Tetto
No Digas Lo Siento
acordes
No Digas Lo Siento
tablatura
No Digas Lo Siento (ver 2)
tablatura
Descubre más canciones de Don Tetto