Mi Error, Don Tetto (tablatura)

Autor: Anónimo | 34740 visualizaciones



Intro
Guitarra 1

Pasa el tiempo ......
  P.M ----------------------------------------------------------|
E-|-------------------|------------|--------------------|--------|
B-|-------------------|------------|--------------------|--------|
G-|-------------------|------------|--------------------|--------|
D-|8-8---8-8-8---8-8-8|-11-11-11-11|-4-4---4-4-4---4-4-4|6-6-6-6-|
A-|8-8---8-8-8---8-8-8|-11-11-11-11|-4-4---4-4-4---4-4-4|6-6-6-6-|
E-|6-6---6-6-6---6-6-6|-9--9--9--9-|-2-2---2-2-2---2-2-2|4-4-4-4-|x4

Estrofa

Y así tendré que....

Guitarra 1
E-|----------------------------|------------------------|    |-----|
B-|----------------------------|------------------------|    |-----|
G-|----------------------------|------------------------|    |-----|
D-|-4-4---4-4-4---4-4--4-4-4-4-|6-6--6-6-6--6-6-6-6-6-6-|    |-----|
A-|-4-4---4-4-4---4-4--4-4-4-4-|6-6--6-6-6--6-6-6-6-6-6-|    |-----|
E-|-2-2---2-2-2---2-2--2-2-2-2-|4-4--4-4-4--4-4-4-4-4-4-|x2  |-8/1-|

Guitarra 2

G-|-8-6-|
D-|--6--| X3

Coro

 Vuelve amor ......

E-|--------------------|
B-|--------------------|
G-|--3----------6------|
D-|--3----4-----6----6-|
A-|1-1----4---4-4----6-|
E-|-----2-2--------4-4-|x2

A#5      F#5        C#5            G#5
Si las palabras arreglaran todo el daño hecho
A#5    F#5        C#5      G#5    C#5
Se que yo, Podria pedir perdon


Se repite la misma secuencia desde el intro hasta el coro, de ahi sique el
el puente y regresa al coro para despues acabar con el punteo.

Intro

Estrofa

Coro

Puente

G-|-6-5-6-8-10-| X3   |-6-5-6-8-6|

Coro x2

Final

G-|--6-5-6-8-6-5-6-|
D-|-0-0-0-0-0-0--6-|
A-|--------------4-|

Espero que les guste
Cualquier comentario





Calificar esta versión:
Aviso: Este fichero es trabajo propio de su transcriptor y representa su interpretación personal de la canción. El material contenido en esta página es para exclusivo uso privado, por lo que se prohibe su reproducción o retransmisión, así como su uso para fines comerciales.
Más versiones de Mi Error, Don Tetto
Mi Error
acordes
Mi Error
tablatura
Descubre más canciones de Don Tetto