Auto Rojo, Don Tetto (tablatura)

Autor: blink-1-8-2 | 41262 visualizaciones



esta es la tablatura de don tetto auto rojo
intro
e-------------------------------
b------------------------------
g-7----------------------------
d-7--5-5-5-5-5-7---------------x2
a-5--5-5-5-5-5-7--------------
e----3-3-3-3-3-5---------------
verso
e-----------------------------
b------------------------------
g-7-7-7-7-7-7-7----------------
d-7-7-7-7-7-7-7---7-7-7-7-7-7-7--
a-5-5-5-5-5-5-5---7-7-7-7-7-7-7--
e-----------------5-5-5-5-5-5-5---

despues en el coro se ase lo mismo y esa es toda la cancion





Calificar esta versión:
Aviso: Este fichero es trabajo propio de su transcriptor y representa su interpretación personal de la canción. El material contenido en esta página es para exclusivo uso privado, por lo que se prohibe su reproducción o retransmisión, así como su uso para fines comerciales.
Más versiones de Auto Rojo, Don Tetto
Auto Rojo
acordes
Auto Rojo
tablatura
Descubre más canciones de Don Tetto