Ríe Chinito, Dolo Y Maju (tablatura)

Autor: Anónimo | 15272 visualizaciones



La saqué a oído lo más exacto posible,
espero que disfruten tocando este hermoso tema.
   A
e |------0----------------0-------
B |--2---2--2--0-----2----2---0---
G |--2------2--2--2--2--------2---
D |----2----------------2---------
A |--0------0--0-----0--------0---
E |-------------------------------

A                             Bm
Ríe chinito, se ríe y yo lloro porque el chino ríe sin mi.
A                                  Bm
Ríe en la noche, y achina los ojos morochos mas lindos que vi.
D                                  A
Sopla las cañas, sube la montaña mañana quizás bajará.
Bm                                  D
Se hace de día, el sol lo encandila, los vientos descansa
y el chino se amansa.
A                               Bm
Ríe chinito, se ríe y yo lloro porque el chino ríe sin mi.
A                                   Bm
Ríe en la noche, y achina los ojos morochos mas lindos que vi.
D                                  A
Sopla las cañas, sube la montaña; mañana quizás bajará.
Bm                                 D
Mira la luna, mi niña y se acuna, que es larga la noche
y claro el camino.
A                Bm          D
Mi despedacito de río hasta donde bajaras.
A                                     D
Mi despedacito de río...

     A                                    Bm
e |------0--------------------0--------------------------------------------
B |-2----2---2---0-------2----2---2---0---2-----2--2--2------2---2---2---2-
G |-2--------2---2---2---2--------2---2---4-----4--4--2------2---2---2---2-
D |----2--------------------2-------------4---4-----------4----------------
A |-0--------0---0-------0--------0---0---2--------2--2------2---2---2---2-
E |------------------------------------------------------------------------

A                             Bm
Ríe chinito, se ríe y yo lloro porque el chino ríe sin mi.
A                                  Bm
Ríe en la noche, y achina los ojos morochos mas lindos que vi.
D                                  A
Sopla las cañas, sube la montaña mañana quizás bajará.
Bm                                 D
Mira la luna, mi niña y se acuna, que es larga la noche
y claro el camino.
A                Bm          D
Mi despedacito de río hasta donde bajaras.
A                                     D
Mi despedacito de río...
A                Bm          D
Mi despedacito de río hasta donde bajaras.
A                                     D
Mi despedacito de río.

   A
e |------0----------------0-------0--
B |--2---2--2--0-----2----2---0---2--
G |--2------2--2--2--2--------2---2--
D |----2----------------2---------2--
A |--0------0--0-----0--------0---0--
E |----------------------------------





Calificar esta versión:
Aviso: Este fichero es trabajo propio de su transcriptor y representa su interpretación personal de la canción. El material contenido en esta página es para exclusivo uso privado, por lo que se prohibe su reproducción o retransmisión, así como su uso para fines comerciales.
Más versiones de Ríe Chinito, Dolo Y Maju
Ríe Chinito
acordes
Ríe Chinito
tablatura
Descubre más canciones de Dolo Y Maju