Titanic Tiesto, Dj Tiesto (tablatura)

Autor: le_on1994@hotmail.com | 35636 visualizaciones



INTRO 
VA UN POCO LENTO
1--------2-0----------------0--0-1------------3----0-1-2---3---0--------------
2------3-----3------------2------------------3------2----3---3---2--------------
3-----2-----------------2------------------4---------2----4---4---2-------------
4----0----------------2------------------5-----------2----4---5---2-------------
5---0---------------0------------------5-------------0----2---5---0-------------
6------------------------------------3----------------0---------3---0-------------

Aquí  es trillado, toda la figura:
1-----5-5-5-5-5-5-5?7-7-7-7-7--9-9-9-9-9--10-10-10-10-10-10-10---------
2--------------------------------------------------------------------------------------------
3--------------------------------------------------------------------------------------------

1----9-9-9-9-9-9-9-5-5-5-5-5-5--------------5-5-5-5-5-7-7-7-7-7-5-5-5-5-5-------------------------------
2--------------------------------------7-7-7-7-7----------------------------------------7-7-7-7-5-5-5-5-7-7-7-7-
3--------------------------------------------------------------------------------------------------------------------------

1-----5-5-5-5-5-5-5?7-7-7-7-7--9-9-9-9-9--10-10-10-10-10-10-10---------
2--------------------------------------------------------------------------------------------
3--------------------------------------------------------------------------------------------

1----9-9-9-9-9-9-9-5-5-5-5-5-5--------------5-5-5-5-5-7-7-7-7-7-5-5-5-5-5-------------------------------
2--------------------------------------7-7-7-7-7----------------------------------------7-7-7-7-5-5-5-5-7-7-7-7-
3--------------------------------------------------------------------------------------------------------------------------

1-------------------------------------------------------------------------------------------------------5-5-5-5-7-7-7-7-
2--3-3-3-3-3-3--5-5-5-5-5-5-7-7-7-7-7--5-5-5-5-3-3-3-3-5h7-5-5-5-5-5-7-7-7-7-7------------------
3-------------------------------------------------------------------------------------------------------------------------


1--5-5-5-5-------------------------------5-5-5-5-5-5-5?7-7-7-7-7--9-9-9-9-9--10-10-10-10-10-10-10--
2-----------7-7-7-7-5-5-5-5-7-7-7-7--------------------------------------------------------------------------------
3--------------------------------------------------------------------------------------------------------------------------

1----9-9-9-9-9-9-9-5-5-5-5-5-5--------------5-5-5-5-5-7-7-7-7-7-5-5-5-5-5-------------------------------
2--------------------------------------7-7-7-7-7----------------------------------------7-7-7-7-5-5-5-5-7-7-7-7-
3--------------------------------------------------------------------------------------------------------------------------
INTERMEDIO: Aquí se toca con la cuerda 4ta sin trillar

4--0-10-0-9-0-7-0-5-0-7
5-----------------------------        x4
6-----------------------------

4-----0-12-10-9-0-7-0-9-0-10---
5---------------------------------------             x6
6---------------------------------------

Aquí cambia a la cuerda 1ra:
1--0-7-0-5-0-7-0-9?0-10-7-5-0-5-0-7-0-9-0-10-7-5---
2-------------------------------------------------------------------             x4
3--------------------------------------------------------------------
1-----5-5-5-5-5-5-5?7-7-7-7-7--9-9-9-9-9--10-10-10-10-10-10-10---------
2--------------------------------------------------------------------------------------------
3--------------------------------------------------------------------------------------------

1----9-9-9-9-9-9-9-5-5-5-5-5-5--------------5-5-5-5-5-7-7-7-7-7-5-5-5-5-5-------------------------------
2--------------------------------------7-7-7-7-7----------------------------------------7-7-7-7-5-5-5-5-7-7-7-7-
3--------------------------------------------------------------------------------------------------------------------------

1-----5-5-5-5-5-5-5?7-7-7-7-7--9-9-9-9-9--10-10-10-10-10-10-10---------
2--------------------------------------------------------------------------------------------
3--------------------------------------------------------------------------------------------

1----9-9-9-9-9-9-9-5-5-5-5-5-5--------------5-5-5-5-5-7-7-7-7-7-5-5-5-5-5-------------------------------
2--------------------------------------7-7-7-7-7----------------------------------------7-7-7-7-5-5-5-5-7-7-7-7-
3--------------------------------------------------------------------------------------------------------------------------

1---------------------------
2---7-7-7-7-7-7-7-7-7--
3---------------------------

dudas corregimientos a mi correo
saludos a rosita





Calificar esta versión:
Aviso: Este fichero es trabajo propio de su transcriptor y representa su interpretación personal de la canción. El material contenido en esta página es para exclusivo uso privado, por lo que se prohibe su reproducción o retransmisión, así como su uso para fines comerciales.