La Ultima Y Me Voy, Division Minuscula (tablatura)

Autor: jared_dm | 43757 visualizaciones



pues este es el solo d esta rola dizfutenlo!!!

1-9---10-10-12-9---10-10-12-9-9-10-9-7---------------------
2--9------------9----------------------9-9/11-11-13-11-9-8-
3---11-----------11----------------------------------------
4----------------------------------------------------------
5----------------------------------------------------------
6----------------------------------------------------------

1-9---10-10-12-9---10-10-12-9-9-10-9-7---------------------
2--9------------9----------------------9-9/11-11-13-11-9-8-9
3---11-----------11----------------------------------------
4----------------------------------------------------------
5----------------------------------------------------------
6----------------------------------------------------------





Calificar esta versión:
Aviso: Este fichero es trabajo propio de su transcriptor y representa su interpretación personal de la canción. El material contenido en esta página es para exclusivo uso privado, por lo que se prohibe su reproducción o retransmisión, así como su uso para fines comerciales.
Más versiones de La Ultima Y Me Voy, Division Minuscula
La última Y Me Voy
acordes
La Ultima Y Me Voy
tablatura
Descubre más canciones de Division Minuscula