Feliz 1er Aniversario, División Minúscula (bajo)

Autor: Anónimo | 37839 visualizaciones



intro X2
G|-----------------------------------------------------------------------|
D|-----------------------------------------------------------------------|
A|-3-333----------------------3-333----------------/10-10----------------|
E|-------5-555--1-111--3-333---------5-555--1-111----------33------------|
verso X2 (dejame decirte una vez más...)
G|-----------------------------------------------------------------------|
D|-----------------------------------------------------------------------|
A|-33333333--8-8-8-10-10-10-12-12-12-10-10-10-8-8-8--33333333------------|
E|-------------------------------------------------------------11111111--|
coro X2 (y si algo te trae por aquí...)
G|-----------------------------------------------------------------------|
D|-----------------------------------------------------------------------|
A|-3333----------------3333-----------8888-------------------------------|
E|------3333-5555-1111------3333-5555------------------------------------|
parte tranquila
G|-----------55555555--22222222-----------7----7-------------------------|
D|-------------------------------55555555---55---55--33333333------------|
A|-----------------------------------------------------------------------|
E|-11111111--------------------------------------------------------------|
outro X4 (y por nada en el mundo cambiaría...)
G|-----------------------------------------------------------------------|
D|-----------------------------------------------------------------------|
A|-333333--000000--------------------------------------------------------|
E|-----------------333333--111111----------------------------------------|
final
G|-----------------------------------------------------------------------|
D|-----------------------------------------------------------------------|
A|-3~-----3--------------------------------------------------------------|
E|-----------------------------------------------------------------------|
esta cancion es mi favorita pero deberían escuchar todo el disco ya que es 
excelente. pronto subire más tabs de este grupo porque está pokamadre.





Calificar esta versión:
Aviso: Este fichero es trabajo propio de su transcriptor y representa su interpretación personal de la canción. El material contenido en esta página es para exclusivo uso privado, por lo que se prohibe su reproducción o retransmisión, así como su uso para fines comerciales.
Más versiones de Feliz 1er Aniversario, División Minúscula
Feliz 1er Aniversario
acordes
Feliz 1er Aniversario
bajo
Descubre más canciones de División Minúscula