En Mi Coche, División Minúscula (bajo)

Autor: Anónimo | 44128 visualizaciones



Hola banda soy pia les dejo la tab de bajo de en mi coche una gran rola
espero les guste

Intro:

es puro silencio antes de verso es:
E---------
A-3-3-3-3- X8 TODO EL INTRO DESPUÉS ES A----3S1
D---------
G---------

verso:

E-1-1-1-1-3-3-3-3---------------
A----------------3-3-3-3-3-3-3-3 X8 Y DESPUÉS A-5-5-5-5 X2
D-------------------------------
G-------------------------------

CORO

E-1-1--3-3----------------      E-6--5--6---3-3-3-3-3-3-3-3
A----------3-3-3-3-3-3-3-3      A--------------------------
D-------------------------   X3 D--------------------------
G-------------------------      G--------------------------

INTRO

E---------
A-3-3-3-3- X4
D---------
G---------

VERSO

E-1-1-1-1-3-3-3-3---------------
A----------------3-3-3-3-3-3-3-3 X8 Y DESPUÉS A-5-5-5-5 X2
D-------------------------------
G-------------------------------



CORO

E-1-1--3-3----------------      E-6--5--6---3-3-3-3-3-3-3-3
A----------3-3-3-3-3-3-3-3      A--------------------------
D-------------------------   X3 D--------------------------
G-------------------------      G--------------------------

PUENTE

E-5-5-5-5--3-3-3-3--5-5-5-5--1-1-1-1--1--3--1--3-     E--5-5-3
A------------------------------------------------
D------------------------------------------------  X2
G------------------------------------------------


INTRO

E---------
A-3-3-3-3- X2
D---------
G---------

VERSO

E-1-1-1-1-3-3-3-3---------------
A----------------3-3-3-3-3-3-3-3 X8 Y DESPUÉS A-5-5-5-5 X2
D-------------------------------
G-------------------------------

FINAL

E-1-1--3-3----------------      E-1-1-1-1-3-3-3-3---------------
A----------3-3-3-3-3-3-3-3      A----------------3-3-3-3-3-3-3-3 X7
D-------------------------  X14 D-------------------------------
G-------------------------      G-------------------------------

y acabamos

A--3-3-3-3 X4

Espero que les guste :)





Calificar esta versión:
Aviso: Este fichero es trabajo propio de su transcriptor y representa su interpretación personal de la canción. El material contenido en esta página es para exclusivo uso privado, por lo que se prohibe su reproducción o retransmisión, así como su uso para fines comerciales.
Más versiones de En Mi Coche, División Minúscula
En Mi Coche
acordes
En Mi Coche
bajo
Descubre más canciones de División Minúscula