Cuenta Hasta 10, División Minúscula (tablatura)

Autor: Anónimo | 33398 visualizaciones



Que onda chavos aqui subiendo ahora una nueva de Division minuscula
es la de cuenta hasta diez, que javier la escribio para la obra
de teatro "me corto las venas o me las dejo largas"
esta xida la rola escuchenla antes de sacarla

pz bueno aqui esta espero que les guste haaaaa! califiquen vale

 Intro:
   F#              C#             D#m             B       C#
e|---9-11-9-7-9-7-9---9-11-9-7-9-7-9---9-11-9-7-9-7-9---9-11-9-7-9-7-9---|
B|-7----------------7----------------7----------------7----------------7-|
G|-----------------------------------------------------------------------|
D|-----------------------------------------------------------------------|
A|-----------------------------------------------------------------------|
E|-----------------------------------------------------------------------|

F#                        C#
Este mundo es tan pequeño como este apartamento
D#m                           B                C#
Tal vez largo como el pasillo pero no pasa de este edificio
F#                                    C#
Donde quedo nuestro último intento y nuestros planes de perder el tiempo
D#m                         B                    C#         B    C#
en lugares lejos muy lejos, en qué momento nos hicimos viejoooooooooos

Coro:

F#              C#          D#m
Cuenta hasta diez y piensa que los sueños no se pierden
B         C#
tan solo se disuelven
F#              C#          D#m
Cuenta hasta diez y piensa que el amor nunca se acaba
B            C#
tan solo cambia de cama


F#                          C#
Donde guardas tus secretos, seguro al lado de esos besos
D#m                             B                        C#
que se empolvan a cada momento, y nuestras risas se las lleva el viento
F#                           C#
ya no cantas a la luna llena solo le hablas de todas tus penas
D#m                           B              C#            B   C#
anda dime lo que te envenena, dime que corre por tus venaaaaaaaaaas

Coro:

F#              C#          D#m
Cuenta hasta diez y piensa que los sueños no se pierden
B         C#
tan solo se disuelven
F#              C#          D#m
Cuenta hasta diez y piensa que el amor nunca se acaba
B            C#
tan solo cambia de cama

Intermedio:

Riff 1:
   F#   C#  D#m  B  C#        x2
e|--9---11---9---9-7--------|
B|-------------------11-----|


Riff 2:
  F#               C#              D#m               B       C#        x2
e|--9-9-9-9-9-11-9---9-9-9-9-7-7-6---9-9-9-9-9-11-9---9-9-9-9-7-7-6--|
B|-7-7-7-7-7--------7-7-7-7-7-------7-7-7-7-7--------7-7-7-7-7-------|

Riff 3:
   F#              C#             D#m          C#                F#    x1
e|--9-9-9-9-9-9-9-9-9-9-9-9-9-9-9-9-11-11-11-11--13--13--13--13--14--|
B|-7-7-7-7-7-7-7-7-7-7-7-7-7-7-7-7-9--9--9--9--11--11--11--11--------|

Riff 4:
    F#         C#      D#m        B  C#         x1
e|--14--7-9-6---7-9-6-------6--------6--------|
B|----------------------7-9---7---7-9---7-----|


Final:
F#              C#          D#m
Cuenta hasta diez y piensa que el amor nunca se acaba
B            C#
tan solo cambia de cama




ok chicos y chicas que les gusta la musica pz ahi esta esta rola
xida califiquen y si agregan mi carreo hablenme y diganme que lo
tomaron de esta pagina y de esta rola para que les pueda ayudar
ok kuidence byeeeeee
xD





Calificar esta versión:
Aviso: Este fichero es trabajo propio de su transcriptor y representa su interpretación personal de la canción. El material contenido en esta página es para exclusivo uso privado, por lo que se prohibe su reproducción o retransmisión, así como su uso para fines comerciales.
Más versiones de Cuenta Hasta 10, División Minúscula
Cuenta Hasta 10
acordes
Cuenta Hasta 10
tablatura
Descubre más canciones de División Minúscula