Control, División Minúscula (bajo) (ver 2)

Autor: Anónimo | 20588 visualizaciones



bno esta cancion la saco un compa pero aki se las pongo
espero les sirva escuchenla pa que cheken los tiempos
l
a primera parte es
G/-------------------
D/-------------------asi hasta que empieza el verso
A/2*-----2*----4*-5*-
E/----3*----3*-------


el verso es

G/-------------------------
D/-------------------------y asi se repite donde lleva el slide
A/2/4-5-4-5-4-5------5-4-2-o el slide lo pueden hacer hasta el traste 16 y
E/--------------33-------tokar en E/ en el 17 suena bn


el coro es
G/-------------------------
D/-------------------------
A/2-4-5-4-5-4-5------5-4-2-
E/--------------33-------

despues ahi un silencio donde solo toka la guitarra
despues es asi
G/-4*----------------
D/------5*----------- asi 2 o 3 veces
A/-------------------
E/-------------------

des pues es si hasta el final

G/-------------------------
D/-------------------------
A/2-4-5-4-5-4-5------5-4-2-
E/--------------33---------

ps ahi sta espero les sirva micorreo es [email protected]





Calificar esta versión:
Aviso: Este fichero es trabajo propio de su transcriptor y representa su interpretación personal de la canción. El material contenido en esta página es para exclusivo uso privado, por lo que se prohibe su reproducción o retransmisión, así como su uso para fines comerciales.
Más versiones de Control, División Minúscula
Control
acordes
Control
tablatura
Control
bajo
Control (ver 2)
bajo
Descubre más canciones de División Minúscula