Betty Bop, División Minúscula (bajo)

Autor: Anónimo | 25541 visualizaciones



UNA DE LAS MEJORES CANCIONES DE DIVISION AKI LA TIENEN OJALA LA DISFRUTEN
No se si esten bien marcados los tiempos pero ahí esta.
Un saludo para los de Panke y los Asteroides.
Comienza la guitarra, u cuando entra la bataca entra el bajo 

G------------------------------------------------------------------
D------------------------------------------------------------------   X2
A-7-7-7-7-7-7-------------4-4-4-4-4-4------------------------------
E-------------5-5-5-5-5-5--------------4-4-4-4----5-5-5-5----------

G------------------------------------------------------------------
D------------------------------------------------------------------  X4 
A-7-7-7-7-7-7-------------4-4-4-4-4-4------------------------------
E-------------5-5-5-5-5-5---------------7-7-7-7-7-7----------------


G------------------------------------------------------------------
D------------------------------------------------------------------ 
A------------------------------------------------------------------
E-7-7-7-7-7-7-7-7-7-7-7-7-7-7-7-7-7--5-5---------------------------

Entra voz
Tengo todo para comprobar...
G------------------------------------------------------------------
D------------------------------------------------------------------   X2
A-7-7-7-7-7-7-------------4-4-4-4-4-4------------------------------
E-------------5-5-5-5-5-5--------------4-4-4-4----5-5-5-5----------


G------------------------------------------------------------------
D------------------------------------------------------------------  x4 
A------------7-7-7-7-7-7-7-7-7-7-7-7-7-----------------------------
E-7-7-7-5-4--------------------------------------------------------


G------------------------------------------------------------------
D------------------------------------------------------------------  
A------------------------------------------------------------------
E-0-0-0-0-0-0-0-0--2-2-2-2--5-5-5-5-5-5-5-5--7-7-7-7-7-7-7-7-------

Tengo el mejor recuerdo en mi...
G------------------------------------------------------------------
D------------------------------------------------------------------  X4 
A-7-7-7-7-7-7-------------4-4-4-4-4-4------------------------------
E-------------5-5-5-5-5-5---------------7-7-7-7-7-7----------------


G------------------------------------------------------------------
D------------------------------------------------------------------ 
A------------------------------------------------------------------
E-5-5-5-5-5-5-5-5-5-5--7-7-7-7-7-7-7-7-7-7-7-----------------------

G------------------------------------------------------------------
D------------------------------------------------------------------  X4 
A-7-7-7-7-7-7-------------4-4-4-4-4-4------------------------------
E-------------5-5-5-5-5-5---------------7-7-7-7-7-7----------------

G------------------------------------------------------------------
D------------------------------------------------------------------ 
A------------------------------------------------------------------
E-7-7-7-7-7-7-7-7-7-7-7-7-7-7-7-7-7--5-5---------------------------

Dime para que ...
G------------------------------------------------------------------
D------------------------------------------------------------------   X2
A-7-7-7-7-7-7-------------4-4-4-4-4-4------------------------------
E-------------5-5-5-5-5-5--------------4-4-4-4----5-5-5-5----------

G------------------------------------------------------------------
D------------------------------------------------------------------  x4 
A------------7-7-7-7-7-7-7-7-7-7-7-7-7-----------------------------
E-7-7-7-5-4--------------------------------------------------------


G------------------------------------------------------------------
D------------------------------------------------------------------  
A------------------------------------------------------------------
E-0-0-0-0-0-0-0-0--2-2-2-2--5-5-5-5-5-5-5-5--7-7-7-7-7-7-7-7-------

Tengo el mejor recuerdo en mi...
G------------------------------------------------------------------
D------------------------------------------------------------------  X4 
A-7-7-7-7-7-7-------------4-4-4-4-4-4------------------------------
E-------------5-5-5-5-5-5---------------7-7-7-7-7-7----------------

Mejor vamos a platicar...

G------------------------------------------------------------------
D------------------------------------------------------------------  X2 
A-7-7-7-7-7-7------------------------------------------------------
E-------------7-7-7-7-7-7-9-9-9-9-9-9-5-5-5-5-5-5------------------


G------------------------------------------------------------------
D------------------------------------------------------------------  X2 
A------7-7-5-4-------7-7-5-4------2-2-2-2--4-5-4-2-4---------------
E-5--5---------4--4----------2--2----------------------------------


no esta dificil verdad? camara ciao





Calificar esta versión:
Aviso: Este fichero es trabajo propio de su transcriptor y representa su interpretación personal de la canción. El material contenido en esta página es para exclusivo uso privado, por lo que se prohibe su reproducción o retransmisión, así como su uso para fines comerciales.
Más versiones de Betty Bop, División Minúscula
Betty Bop
acordes
Betty Bop
bajo
Descubre más canciones de División Minúscula