AÑo Nuevo, Division Minuscula (tablatura)

Autor: drako zl | 44591 visualizaciones



Que tal como están pues aquí les dejo la canción de división minúscula de su nuevo disco sirenas “año nuevo” espero que les guste

Intro:este va con la guitarra limpia

E|-----------------|
B|-----------------|
G|8---8-8-9---9-8--|
D|8---8-8-8---8-8--|  x2
A|6---6-6-6---6-6--|
E|-----------------|

Los versos se acompañan por el intro

Creo que llego del norte

Ella dice que del sur

Lleva todo en su maleta

Dice que yo quepo ahí

Pone nombre alas estrellas 

Sabe cuanto me hace reír

Una noche como esta

Creo ellas la dejaron aquí


      Fa5        g#5   
Oh oh oh   oh oh oh  
 C5               g#5           d#5  
Y yo sigo esperando el año nuevo          RIFF1
C5                     g#5         d#5
Pues van como veintitantos casi ya        RIFF2
C5                   g#5
Pero algo me hace despertar
A#5                   d#5    E5    F5  
Por las noches para oírla  respirar
              D#5    RIFF3  (ESTE RIFF ACOMPAÑA HASTA QUE SE ACABA EL CORO) 
Y este es mi lugar y todo pasara


E|-----------------|
B|-----------------|
G|8---8-8-9---9-8--|
D|8---8-8-8---8-8--|  x2
A|6---6-6-6---6-6--|
E|-----------------|

EL SIGUIENTE VERSO SE ACOMPAÑA DEL RIFF5

Tierna como las sirenas

Turvia como un huracán

Canta con el  viento

Baila con el mar

Yo prefiero el encierro 

Pero ella me va a buscar

      Fa5        g#5   
Oh oh oh   oh oh oh  
 C5               g#5           d#5  
Y yo sigo esperando el año nuevo          RIFF1
C5                     g#5         d#5
Pues van como veintitantos casi ya        RIFF2
C5                   g#5
Pero algo me hace despertar
A#5                   d#5    E5    F5  
Por las noches para oírla  respirar
              D#5    RIFF3   
Y este es mi lugar y todo pasara

Solo

|---------------------------4---------------------------------------4---------|
|1/4/8-8-4/6-4----------6/8---8-8/-6-4/1-1/4/8-8-4/6-4----------6/8---8-8/6-4-|
|-----------------------------------------------------------------------------|
|-----------8/10-13-8----------------------------------8/10-13-8--------------|
|-----------------------------------------------------------------------------|
|-----------------------------------------------------------------------------|

|-----------4-4---6-6(8)6-6--------------------------|
|1/4/8-8-4/6-6-6/8-8-------1/4-4/5-5/6-6/8-6-6/8-8/9-|
|----------------------------------------------------|
|----------------------------------------------------|
|----------------------------------------------------|
|----------------------------------------------------|

|------------------|
|6/8-6-4/6-4/6-1/4-|
|------------------|
|------------------|
|------------------|
|------------------|
C5               g#5           d#5  
Y yo sigo esperando el año nuevo          RIFF4
C5                     g#5         d#5
Pues van como veintitantos casi ya        RIFF2
C5                   g#5
Pero algo me hace despertar
A#5                   d#5    E5    F5  
Por las noches para oírla  respirar
              D#5    RIFF3   
Y este es mi lugar y todo pasara

E|-----------------|
B|-----------------|
G|8---8-8-9---9-8--|
D|8---8-8-8---8-8--|  x2
A|6---6-6-6---6-6--|
E|-----------------|

Pone nombre alas estrellas 

Creo ellas la dejaron aquí

RIFF1
|------------------|
|1/4/8-8/9/8-6/8-4-|
|------------------|
|------------------|
|------------------|
|------------------|



RIFF2
|--------------------|
|1/4/8-8/9/8-6/11-11-|
|--------------------|
|--------------------|
|--------------------|
|--------------------|

RIFF3
|------------------------------------------|
|1/4-4/5-5/6-6/8-6-6/8-8/9-9/11-11-11/-1/4-|
|------------------------------------------|
|------------------------------------------|
|------------------------------------------|
|------------------------------------------|

RIFF4
|-----------------------|
|9/11-8/9/8-8/9/8-6/8-4-|
|-----------------------|
|-----------------------|
|-----------------------|
|-----------------------|

RIFF5 EL SEGUNDO VERSO SE ACOMPAÑA DE ESTE RIFF

|-11-11-11---11-11-11---11-11-11--|
|8-----8--8-8-----8--8-8-----8--8-|
|---------------------------------|
|---------------------------------|
|---------------------------------|
|---------------------------------|

BUENO ESO ES TODO ESPERO QUE LES GUSTE





Calificar esta versión:
Aviso: Este fichero es trabajo propio de su transcriptor y representa su interpretación personal de la canción. El material contenido en esta página es para exclusivo uso privado, por lo que se prohibe su reproducción o retransmisión, así como su uso para fines comerciales.
Más versiones de AÑo Nuevo, Division Minuscula
Año Nuevo
acordes
AÑo Nuevo
tablatura
Año Nuevo (ver 2)
tablatura
Descubre más canciones de Division Minuscula