Mi Vida, Divino (tablatura)

Autor: Gnqp14 | 25661 visualizaciones



e|-10-10--08-07-08-07-08-09-10--08-07-08-07-08-09-10/12-12----------|
b|------10--------------------10--------------------------12/10-10--|
g|------------------------------------------------------------------|
d|------------------------------------------------------------------|
a|------------------------------------------------------------------|
E|------------------------------------------------------------------|


e|-----------------------------------------------------------------|
b|--------5--------------------------------------------------------|
g|--0-5-7-----7-6--------------------------------------------------|
d|-----------------------------------------------------------------|
a|-----------------------------------------------------------------|
E|-----------------------------------------------------------------|





Calificar esta versión:
Aviso: Este fichero es trabajo propio de su transcriptor y representa su interpretación personal de la canción. El material contenido en esta página es para exclusivo uso privado, por lo que se prohibe su reproducción o retransmisión, así como su uso para fines comerciales.
Más versiones de Mi Vida, Divino
Mi Vida
acordes
Mi Vida
tablatura
Descubre más canciones de Divino