Sultans Of Swing, Dire Straits (tablatura) (ver 2)

Autor: ReNz0 | 30519 visualizaciones



Un poco complicada pero con atención y paciencia lo logran..!


       Sultans of swim

Intro:
|-----------------------------------------|
|-------------------------6---------------|
|-5p2?5p2?5s7-------7--------7------------|
|--------------5s7-----7------------------|
|-----------------------------------------|
|-----------------------------------------| 

|--------5-8---5--------------------------|
|------6---------6-6-5h6p5----------------|
|----7----------------------7-------------|
|-----------------------------------------|
|-----------------------------------------|
|-----------------------------------------| 

 Verso:  Dm   C  Bb A
|------------------------------------------|
|--------4b6^6^6b4-------------------------|
|------------------------------------------|
|------------------------------------------|
|------------------------------------------|
|------------------------------------------| 

   Dm   C  Bb   A
|------------------------------------------|
|-------10--------10--------10--------10---|
|------------------------------------------|
|--s11---------11---------11--------11-----|
|------------------------------------------|
|------------------------------------------|  

  F                   C
|-------------------|------------------|
|-5---5--6--6p5----2|-----------6------|
|-5---5--5--5------2|------7--------7s3|
|-5---5--7--7p5----2|--5s7---7---------|
|-------------------|------------------|
|-------------------|------------------| 

   Bb                   A
|-------------------|----------------------|
|-3---6-------3s5-5-|----------------------|
|-3---3-------3s5-5-|----------5-----------|
|-3---3----3--------|-----5--7-------------|
|-------------------|--5s7-----------------|
|-------------------|----------------------| 

 Dm C Bb A
|------------------------------------------|
|-----10----10-11-10------10----8---6------|
|------------------------------------------|
|-s11----11------------11-------9---7------|
|------------------------------------------|
|------------------------------------------| 
 
 Dm C Bb A
|--10p9------------------------------------|
|-------10---------------------------------|
|-----------9s7-7-6------------------------|
|-------------------7-5--------------------|
|------------------------------------------|
|------------------------------------------| 

 F  C                 Bb A  
|-------------------|-----10--8------------|
|---5--5--6--6p5--3-|------------10--------|
|---5--5--7--7p5--3-|-----10--9--10--------|
|---5--5--7--7p5--3-|----------------------|
|-------------------|----------------------|
|-------------------|----------------------| 
Bb C            Bb C
Way on downsouth               Way on downsouth   
|-------------|----------------------------|
|--3--6---3s5-|--3--6---3s5----------------|
|--3--3---3s5-|--3--3---3s5----------------|
|--3----3---5-|--3----3---5----------------|
|-------------|----------------------------|
|-------------|----------------------------| 

 Dm C Bb A
|------------------------------------------|
|--6--5--3---6?6p5--5----10---8------------|
|--7--5--3---5-5----5--5s10---9------------|
|--7--5--3---7-7p5--5----10--10------------|
|------------------------------------------|
|------------------------------------------| 
 
 Dm C Bb A
|------------------------------------------|
|--6-5--3--6--6p5-5------------------------|
|--7-5--3--5--5---5-----------5------------|
|--7-5--3--7--7p5-5-------5-7--------------|
|---------------------5s7------------------|
|------------------------------------------| 

Dm C Bb A
check out Guitar George 
|-------9--8--9-|-------5-------9----7------|
|-------8--7--8-|-----5--5--8b10^10b8---8b10|
|-------9--8--9-|-7b9-----------------------|
|--5s7----------|---------------------------|
|---------------|---------------------------|
|---------------|---------------------------| 


 F C Bb A 
|--------------------|----10-8-------------|
|-------8------6-6-6-|---------10----------|
|--7S9----9S7--7-7-7-|--7S10-9-10----------|
|--------------------|---------------------|
|--------------------|---------------------|
|--------------------|---------------------| 
 
 Bb  C
|------------------------------------------|
|-3--6---3s5-------------------------------|
|-3--3---3s5-------------------------------|
|-3----3---5--------5---5---5s7------------|
|---------------5s7---7---7----------------|
|------------------------------------------| 


 Dm C Bb A
|------|---6s9-9------------5--------------|
|--8---|---------10------------------------|
|--8b9-|------------9s7-7-6----------------|
|------|-----------------------------------|
|------|-----------------------------------|
|------|-----------------------------------| 

 F   C
|---------------|--------------------------|
|-5--6--6--5--3-|--------------------------|
|-5--5--5--5--3-|--------------------------|
|-5--7--7--5--3-|-----7---10-9-8-7---------|
|---------------|-5s7--7-------------------|
|---------------|--------------------------|  
Bb  C           Bb  C
                With the Sultans 
|-------------|----------------------------|
|--3--6---3s5-|--3--6---3s5----------------|
|--3--3---3s5-|--3--3---3s5----------------|
|--3----3---5-|--3----3---5----------------|
|-------------|----------------------------|
|-------------|----------------------------| 
 
             Dm C Bb A
 with the Sultans of Swing 
|------------------------------------------|
|--6--5--3---6?6p5--5----10---8------------|
|--7--5--3---5-5----5--5s10---9------------|
|--7--5--3---7-7p5--5----10--10------------|
|------------------------------------------|
|------------------------------------------| 
 
 Dm C Bb A
|------------------------------------------|
|--6-5--3--6--6p5-5------------------------|
|--7-5--3--5--5---5-----------5------------|
|--7-5--3--7--7p5-5-------5-7--------------|
|---------------------5s7------------------|
|------------------------------------------| 

Dm C Bb A
|---------12-------------------13----------|
|---12b14^^^14b12--12-10-------------------|
|------------------------12s14-------------| 
|------------------------------------------|
|------------------------------------------|
|------------------------------------------| 

 Dm C Bb A
|-12p9-----------5-------------------------|
|------10-------------9b10b9b10------------|
|---------9--7-6---------------------------|
|------------------------------------------|
|------------------------------------------|
|------------------------------------------|  

 F  C  Bb  A
|------------------|-----------------------|
|-----8------6-6-6-|-------6---------------|
|-7s9---9s7--7-7-7-|----7----7s2-----------|
|------------------|-5s7-7-----------------|
|------------------|-----------------------|
|------------------|-----------------------| 
 Bb  C          Bb C
               And the Sultans
|-------------|----------------------------|
|--3--6---3s5-|--3--6---3s5----------------|
|--3--3---3s5-|--3--3---3s5----------------|
|--3----3---5-|--3----3---5----------------|
|-------------|----------------------------|
|-------------|----------------------------|  

 Dm   C   Bb   A
And the Sultans played Creole
|------------------------------------------|
|--6--5--3---6?6p5--5----10---8------------|
|--7--5--3---5-5----5--5s10---9------------|
|--7--5--3---7-7p5--5----10--10------------|
|------------------------------------------| 
|------------------------------------------| 
 
  Dm  C  Bb  A
|------------------------------------------|
|--6-5--3--6--6p5-5------------------------|
|--7-5--3--5--5---5-----------5------------|
|--7-5--3--7--7p5-5-------5-7--------------|
|---------------------5s7------------------|
|------------------------------------------| 

Solo1:
|------------------------------------------|
|------------------------------------------|
|-12b14^14^14^14b12---10h12p10---9h10p9----|
|------------------------------------------|
|------------------------------------------|
|------------------------------------------| 

|-------------9?12b13--10------------------|
|----------10------------10-------10-13----|
|--------9-----------------10--------------|
|-----11---------------------12------------|
|--12--------------------------------------|
|------------------------------------------|

|------------------------------------------|
|-11h13p11?10h11p10?s10-11----9s10-10------|
|--------------------------12--------------|
|------------------------------------------|
|------------------------------------------|
|------------------------------------------|

|-----------12-----------------------------|
|-------13----13---------------------------|
|-12b14^^^14^^^^14b12--10-12-10------------|
|------------------------------------------|
|------------------------------------------|
|------------------------------------------|

|-s13-12-----------------------------------|
|--------13----------13-13-----------------|
|-----------12-14-12-----------------------|
|------------------------------------------|
|------------------------------------------|
|------------------------------------------| 

|------------------------------------------|
|-13b15--13b15--11---13b15?13b15-----------|
|------------------------------------------|
|------------------------------------------|
|------------------------------------------|
|------------------------------------------|

|----13p10---10--------10------------------|
|-10-------10----12b14----13-10------------|
|-------------------------------12---------|
|------------------------------------------|
|------------------------------------------|
|------------------------------------------|

|------------------------------------------|
|-----3-6-3---5-6-8-6-5?6s8----------------|
|---3--------5-----------------------------|
|-3---------5------------------------------|
|------------------------------------------|
|------------------------------------------| 

|------------------------------------------|
|-----3-6-3---------------8------6-6-6-----|
|---3----------5-7--5?7s9---9s7--7-7-7-----|
|-3----------5-----------------------------|
|------------------------------------------|
|------------------------------------------| 

Verso:
|------------------------------------------|
|--6--5--3---6?6p5--5----10---8------------|
|--7--5--3---5-5----5--5s10---9------------|
|--7--5--3---7-7p5--5----10--10------------| 
|------------------------------------------| 
|------------------------------------------| 
 
|------------------------------------------|
|--6-5--3--6--6p5-5------------------------|
|--7-5--3--5--5---5-----------5------------|
|--7-5--3--7--7p5-5-------5-7--------------|
|---------------------5s7------------------|
|------------------------------------------| 
  
|------------------------------------------|
|------------------------------|-----9-----|
|-----10--12--14-14--17-17--15-|----9------|
|------------------------------|---9-------|
|-9s11----12--14-14--17-17--16-|-11--------|
|------------------------------|-----------| 
|------------------------------|-----------|

|---------------------6--------------------|
|-----8------6-6-6----6--------------------|
|-7s9---9s5--7-7-7----7--------------------|
|------------------------------------------|
|------------------------------------------|
|------------------------------------------| 

|------------------------------------------|
|---------6--6-----------------------------|
|-----7----7--7----------------------------|
|-5s7--7-----------------------------------|
|------------------------------------------|
|------------------------------------------| 
 
               We are the Sultans
|-------------|----------------------------|
|--3--6---3s5-|--3--6---3s5----------------|
|--3--3---3s5-|--3--3---3s5----------------|
|--3----3---5-|--3----3---5----------------|
|-------------|----------------------------|
|-------------|----------------------------| 

'We are the Sultans of Swing'
|------------------------------------------|
|--6--5--3---6?6p5--5----10---8------------|
|--7--5--3---5-5----5--5s10---9------------|
|--7--5--3---7-7p5--5----10--10------------|
|------------------------------------------| 
|------------------------------------------|
 
|------------------------------------------|
|--6-5--3--6--6p5-5------------------------|
|--7-5--3--5--5---5-----------5------------|
|--7-5--3--7--7p5-5-------5-7--------------|
|---------------------5s7------------------|
|------------------------------------------| 

Solo2:
|------------------------------------------|
|------------------------------------------|
|--12b14b12--10-12p10------12b14b12--------|
|---------------------12-------------------|
|------------------------------------------|
|------------------------------------------|

|------------------------------------------|
|------------------------------------------|
|-9-9h12p9?7h9p7-5h7p5---------------------|
|----------------------5h7p5-3h5p5-2h3p2---|
|------------------------------------------|
|------------------------------------------| 

|--------------------|----------[-8--------]
|------10p8---8------|----8h10p8[--10p8----]
|-7s9-------9---9--7-|-7S9------[-------9--]
|--------------------|----------[----------]x5
|--------------------|----------[----------]
|--------------------|----------[----------] 

|---------10-------------------------------|
|-------10---13p10------------------10-----|
|-12b14------------12p10----------10---12--|
|------------------------12?10h12----------|
|------------------------------------------|
|------------------------------------------| 

|-----------------------------12-----10----|
|---------10--------11---11b13^^13b11--10--|
|-----t12--------t13-----------------------|
|--t12--------t13--------------------------|
|------------------------------------------|
|------------------------------------------| 

|-13p10---10?13p10--10-13p10--10-13p10-----|
|------10---------10--------10-------------|
|------------------------------------------|
|------------------------------------------|
|------------------------------------------|
|------------------------------------------| 

|--10-13p10--10-13p10--10-13p10--10-13-----|
|11--------11--------11--------11----------|
|------------------------------------------|
|------------------------------------------|
|------------------------------------------|
|------------------------------------------| 

|--15p12--12-15p12--12-15p12--12-15p12-----|
|13-----13--------13--------13-------------|
|------------------------------------------|
|------------------------------------------|
|------------------------------------------|
|------------------------------------------| 

|--12-15p12--12-15p12--12-15p12--12-15-----|
|13--------13--------13--------13----------|
|------------------------------------------|
|------------------------------------------|
|------------------------------------------|
|------------------------------------------| 

|--10-13p10---10?13p10--10-13p10--10-13p10-|
|10--------10---------10--------10---------|
|------------------------------------------|
|------------------------------------------|
|------------------------------------------|
|------------------------------------------| 

|--10-13p10--10-13p10--10-13p10--10-13-----|
|11--------11--------11--------11----------|
|------------------------------------------|
|------------------------------------------|
|------------------------------------------|
|------------------------------------------| 
 
|--12-15p12--12-15p12--12-15p12--12-15p12--|
|13--------13--------13--------13----------|
|------------------------------------------|
|------------------------------------------|
|------------------------------------------|
|------------------------------------------| 

|--12-15p12--12-15p12--12-15p12--12-15-----|
|13--------13--------13--------13----------|
|------------------------------------------|
|------------------------------------------|
|------------------------------------------|
|------------------------------------------| 
 

|-15b17?17b15--13--15p13----15b17b15-------|
|------------------------15----------------|
|------------------------------------------|
|------------------------------------------|
|------------------------------------------|
|------------------------------------------| 

|-12-12h15p12------------------------------|
|------------13h15p13----------------------|
|--------------------12h14p12--------------|
|------------------------------------------|
|------------------------------------------|
|------------------------------------------| 

|------------------------------------------|
|------------------------------------------|
|------------------------------------------|
|-12h14p12?9h12p9--------------------------|
|-----------------10h12p10-----------------|
|------------------------------------------|





Calificar esta versión:
Aviso: Este fichero es trabajo propio de su transcriptor y representa su interpretación personal de la canción. El material contenido en esta página es para exclusivo uso privado, por lo que se prohibe su reproducción o retransmisión, así como su uso para fines comerciales.
Más versiones de Sultans Of Swing, Dire Straits
Sultans Of Swing
acordes
Sultans Of Swing (ver 2)
acordes
Sultans Of Swing (ver 3)
acordes
Sultans Of Swing
tablatura
Sultans Of Swing (ver 2)
tablatura
SULTANS OF SWING (ver 3)
tablatura
Descubre más canciones de Dire Straits