No Era El Nido, Diomedes Diaz (tablatura)

Autor: criss2000z | 42163 visualizaciones

Aquí les dejo la tablatura del solo de la guitarra

e|--7--7/9---9---10--|--7--7/9---9---10--|--7--7/9---9---10--|
B|--9--9/11--11--12--|--9--9/11--11--12--|--9--9/11--11--12--|
G|-------------------|-------------------|-------------------|
D|-------------------|-------------------|-------------------|
A|-------------------|-------------------|-------------------|
E|-------------------|-------------------|-------------------|

|--7--7-----7--7/9---|--9---9---9---10---|--11--11--9--------|
|--9--9---9----9/11--|--11--11--11--12---|--12--12--10-------|
|-------9------------|-------------------|-------------------|
|--------------------|-------------------|-------------------|
|--------------------|-------------------|-------------------|
|--------------------|-------------------|-------------------|

|--7--7/9---9---10--|--7--7/9---9---10--|--7--7/9---9---10--|
|--9--9/11--11--12--|--9--9/11--11--12--|--9--9/11--11--12--|
|-------------------|-------------------|-------------------|
|-------------------|-------------------|-------------------|
|-------------------|-------------------|-------------------|
|-------------------|-------------------|-------------------|

|--7--7-----7----11-|----9---7---5---5--|
|--9--9---9---13----|-11---9---7---5----|
|-------9-----------|-------------------|
|-------------------|-------------------|
|-------------------|-------------------|
|-------------------|-------------------|

Espero les guste.
-Alguna sugerencia, duda, etc agreguenme al facebook:
https://www.facebook.com/criss.alvarezh

-También les dejo el vídeo tutorial:
http://www.youtube.com/watch?v=4WCcF4T8As0
Calificar esta versión:
Aviso: Este fichero es trabajo propio de su transcriptor y representa su interpretación personal de la canción. El material contenido en esta página es para exclusivo uso privado, por lo que se prohibe su reproducción o retransmisión, así como su uso para fines comerciales.