The Last In Line, Dio (tablatura) (ver 2)

Autor: GothGirl | 41575 visualizaciones



Solo es la intro y la he apuntado de oído, espero que os guste ;)


	[Solo la guitarra]
E ----------------------0---------------------------------------0-------------------------------|
B ----0--2--4--4--2------2--0--2--0--------0--2--4--4--2------0-------0-------------------|
G ----------------------------------------------------------------------2-----------------------|
D ----------------------------------------------------------------------------------------------|
A ----------------------------------------------------------------------------------------------|
E ----------------------------------------------------------------------------------------------|


	We are ships without storm, the cold without the warm, light inside the darkness lit at peace, yeah...
E ----------------------0---------------------------------------0-------------------------------|
B ----0--2--4--4--2------2--0--2--0--------0--2--4--4--2------2---------------------------|
G ----------------------------------------------------------------------------------------------|
D ----------------------------------------------------------------------------------------------|
A ----------------------------------------------------------------------------------------------|
E ----------------------------------------------------------------------------------------------|

	We're a laugh without a tear, the hope without the fear. We are coming... 
E ----------------------0-----------------------------------------------------------------------|
B ----0--2--4--4--2------2--0--2--0---------------------------------------------------------|
G ----------------------------------------------------------------------------------------------|
D ----------------------------------------------------------------------------------------------|
A ----------------------------------------------------------------------------------------------|
E ----------------------------------------------------------------------------------------------|





Calificar esta versión:
Aviso: Este fichero es trabajo propio de su transcriptor y representa su interpretación personal de la canción. El material contenido en esta página es para exclusivo uso privado, por lo que se prohibe su reproducción o retransmisión, así como su uso para fines comerciales.
Más versiones de The Last In Line, Dio
The Last In Line
tablatura
The Last In Line (ver 2)
tablatura
Descubre más canciones de Dio