Ventura, Dildo (bajo)

Autor: Anónimo | 33818 visualizaciones

INTRO


G)-------------------------------------------|
D)-------------------------------------------|
A)--77777777-77777777-77777777-77777777------|
E)-------------------------------------------|

G)-------------------------------------------|
D)-------------------------------------------|
A)--77777777-77777777-7-5------------4-5-4---|
E)-----------------------7-555555555------5--|

G)-------------------------------------------|
D)-------------------------------------------|
A)--77777777-77777777-7-5------------4-5-4---|
E)-----------------------7-555555555------5--|


Empiezan los versos a la mitada de esta riff
y lo repite

G)-------------------------------------------|
D)-------------------------------------------|
A)--77777777-77777777-7-5------------4-5-4---|
E)-----------------------7-555555555------5--|

G)-------------------------------------------|
D)-------------------------------------------|
A)--77777777-77777777-7-5------------4-5-4---|
E)-----------------------7-555555555------5--|

G)--------------------------|
D)--------------------------|
A)--77777777-77777777-7-5---|
E)-----------------------7-5|

"por que nada...." sigue

G)------------------------------------------------|
D)------------------------------------------------|
A)------------222222222222------------22222222222-|
E)--3333333333------------33333333333-------------|

"y hoy estoy...." va lo que sigue

G)-------------------------------------|
D)-------------------------------------|
A)--333333333333------77777777777------|
E)-------------------------------------|

vuelve a tocar el intro y los versos

"Por que nada...."

G)------------------------------------------------|
D)------------------------------------------------|
A)------------222222222222------------22222222222-|
E)--3333333333------------33333333333-------------|

"y hoy estoy...." pero se añade un la
cuando repite "pidiendolo"

G)------------------------------------------------|
D)------------------------------------------------|
A)--333333333333------77777777777-----------------|
E)--------------------------------55555555555-----|

coro "hoy estoy de regreso...."

G)------------------------------------------------|
D)------------------------------------------------|
A)--5555555555------------3333333333--777777777---|
E)--------------555555555-------------------------|

G)--------------------------------------------------|
D)--------------------------------------------------|
A)--5555555555------------3333333333--77777777-7-5--|
E)--------------555555555--------------------------7|

despues se toca lo que sigue

)----------------------|
D)---------------------|
A)-------------4-5-4---|
E)---555555555------5--|


G)-------------------------------------------|
D)-------------------------------------------|
A)--77777777-77777777-7-5------------4-5-4---|
E)-----------------------7-555555555------5--|

G)-------------------------------------------|
D)-------------------------------------------|
A)--77777777-77777777-7-5------------4-5-4---|
E)-----------------------7-555555555------5--|

G)-------------------------------------------|
D)-------------------------------------------|
A)--77777777-77777777-7-5------------4-5-4---|
E)-----------------------7-555555555------5--|

G)--------------------------|
D)--------------------------|
A)--77777777-77777777-7-5---|
E)-----------------------7-5|


"Por que nada...."

G)------------------------------------------------|
D)------------------------------------------------|
A)------------222222222222------------22222222222-|
E)--3333333333------------33333333333-------------|

"y hoy estoy...." pero se añade un la
cuando repite "pidiendolo"

G)------------------------------------------------|
D)------------------------------------------------|
A)--333333333333------77777777777-----------------|
E)--------------------------------55555555555-----|

coro "hoy estoy de regreso...." mas o menos 4 veces
y se termina en mi

G)------------------------------------------------|
D)------------------------------------------------|
A)--5555555555------------3333333333--777777777---|
E)--------------555555555-------------------------|
Calificar esta versión:
Aviso: Este fichero es trabajo propio de su transcriptor y representa su interpretación personal de la canción. El material contenido en esta página es para exclusivo uso privado, por lo que se prohibe su reproducción o retransmisión, así como su uso para fines comerciales.
Más versiones de Ventura, Dildo
Ventura
acordes
Ventura
bajo
Descubre más canciones de Dildo