Todo Cuenta, Dildo (tablatura) (ver 3)

Autor: Anónimo | 20191 visualizaciones

ES MI PRIMERA APORTACION ESPERO QUE LES SIRVA
no se si erik la tenga afinada en otro tono
por q en vivo toka en vez d A#-A toca Fm-E pero en afinacion estandar
se oie mejor asi con #
INTRO 1
(DISTORCION)
   A

rirff 1


B--10-10-10-10-10-9---------10-10-10-10-10-9------------10-10-10-10-9--------
G------------------9-9-9-9------------------ 7-7-7-7-7-7-------------
6-6-6-6-6-6-7-7-9

Hoy, hoy no quiero ver el sol

me quedo en medio de la oscura habitación
A        C#
porque se que no vas a regresar
G                         D          A#-A
y estoy en todo mi derecho de no salir jamas.

riff 1

B-10-10-10-10-10-9---------10-10-10-10-10-9------------10-10-10-10-9--------
G-----------------9-9-9-9------------------ 7-7-7-7-7-7-------------
6-6-6-6-6-6-7-7-9

Y, y si pasas por aqui

te daras perfecta cuentaque pude estar sin ti
A           C#
y hableremos de todo lo que pudo ser
G                        D        A#-A
Y nos reiremos del pasado con algun cocktail.
A                        C#
Todo cuenta, todo cuenta, cuando no hay nada
G                        D     A#-A
todo se va, todo cambia, todo se acaba.
A                        C#
Todo cuenta, todo cuenta, cuando no hay nada
G                        D     A#-A
todo se va, todo cambia, todo se acaba.

riff

B-10-10-10-10-10-9---------10-10-10-10-10-9------------10-10-10-10-9--------
G-----------------9-9-9-9------------------ 7-7-7-7-7-7-------------
6-6-6-6-6-6-7-7-9

Hoy, hoy ya puedo ver el sol

y me he dado cuenta que ya me siento mejor
A           C#
y hableremos de todo lo que pudo ser
G                         D     A#-A
nos burlaremos del destino una y otra vez
A                        C#
Todo cuenta, todo cuenta, cuando no hay nada
G                        D     A#-A
todo se va, todo cambia, todo se acaba.
A                        C#
Todo cuenta, todo cuenta, cuando no hay nada
G                        D5     A#-A
todo se va, todo cambia, todo se acaba.

SOLO
E-----------------------------------------------------
A------------------------------------------------
D---------------------------------------------------------
G------11---11---11---11-----11----11---11---11---------------
B----9----9----9----9---9/13----13----13---13-------------------
e----------------------------------------------------------------

D------------------16-------16-----16------16-------------------
G---------------17-------17-----17------17----------7V-------------
B------------15-------15------15------15---------------------------
e---10H12-------------------------------------------------------

A                        C#
Todo cuenta, todo cuenta, cuando no hay nada
G                        D     A#-A
todo se va, todo cambia, todo se acaba.
A                        C#
Todo cuenta, todo cuenta, cuando no hay nada
G                        D     A#-A
todo se va, todo cambia, todo se acaba.

cualkier correccion o sugerencia mi correo es ongi_2007@hotmail.com
tab by alex espero les sirva banda y califiquen
 por q es un pdo subir estas madres jaja
Calificar esta versión:
Aviso: Este fichero es trabajo propio de su transcriptor y representa su interpretación personal de la canción. El material contenido en esta página es para exclusivo uso privado, por lo que se prohibe su reproducción o retransmisión, así como su uso para fines comerciales.
Más versiones de Todo Cuenta, Dildo
Todo Cuenta
acordes
Todo Cuenta
tablatura
Todo Cuenta (ver 2)
tablatura
Todo Cuenta (ver 3)
tablatura
Descubre más canciones de Dildo