Suicidio #3, Dildo (bajo)

Autor: Anónimo | 44267 visualizaciones

verso

cuando la guitarra da el acorde de "E"

1----------------7-9-7-------------
2----------7-8-9-------9-8-7-------
3---7-9-10------------------10-9-7-
4-0--------------------------------


cuando la guitarra hace "Bm"

1----------------------------------
2----9--9---9----9-----------------
3----------------------------------
4--7--7---7--7-7-------------------

coro

1-------------------    -----------------------
2----9--9---9----9--    ----5-----5-----7----8-
3-------------------(x2 -----------------------
4--7--7---7--7-7----    --3-----3-----5--6-6---

solo

1----------------7/9     ---------7/9-7---------
2----9--7---9------      ----9--7------9--------
3-------------------(x3) -----------------------
4--7--7---7--7-7----     --7--7-----------------

1----------------7/9     ---------7/9-7---------
2----9--7---9------      ----9--7------9--------
3-------------------(x3) -----------------------
4--7--7---7--7-7----     --7--7-----------------
Calificar esta versión:
Aviso: Este fichero es trabajo propio de su transcriptor y representa su interpretación personal de la canción. El material contenido en esta página es para exclusivo uso privado, por lo que se prohibe su reproducción o retransmisión, así como su uso para fines comerciales.
Más versiones de Suicidio #3, Dildo
Suicidio #3
acordes
Suicidio #3
bajo
Descubre más canciones de Dildo