Loco Corazón, Dildo (bajo)

Autor: Anónimo | 38739 visualizaciones

Bajo-loco corazon


G--------------------------------------------
D--------------------------------------------
A-----------3----5---------------------------        x2
E-----5--------------------------------------

        Verso  loco corazon,,,,,,
G---------------------------------------
D-------------------------3------------- (asi va casi toda)
A---------33--5--555--------5---3-------
E----55---------------------------------

Por eso yo te di mi amor

G------------------------------------------
D------------------------------------------
A----77---55-------------------------------     x2
E-----------------5-555--6--5--4--5--------

Con ese co-co co-co corazo-on

G-------------------------------------------
D-------------------------------------------
A-------------------------------------------  x2
E-----33-33--3330----11111111---------------

Y , ya todo lo demas se repite nomas ponganle atención.
Bueno un saludo para el mejor grupo de sonora
                     “PaTeAnDo KoLaS”
Calificar esta versión:
Aviso: Este fichero es trabajo propio de su transcriptor y representa su interpretación personal de la canción. El material contenido en esta página es para exclusivo uso privado, por lo que se prohibe su reproducción o retransmisión, así como su uso para fines comerciales.
Más versiones de Loco Corazón, Dildo
Loco Corazón
acordes
Loco Corazón
bajo
Descubre más canciones de Dildo